PrimaNota.ru - самый крупный в мире бесплатный архив песенных текстов, аккордов, табулатур и нот


Megaherz - Keine Zeit - текст песни, таба, видео

Регистрация Запомнить меня
Войти через:  Facebook Google Twitter Vk Yandex Mail.ru

Megaherz - Keine Zeit - текст песни, таба, видео

Печатать
Просмотров: 125
Artist : Megaherz
Song   : Keine Zeit
Album  : Götterdämmerung
Tuning : Drop C# (D# A# F# C# G# C#)
Tab    : Ei5enmann

Duration Legend
---------------
W - whole
H - half
Q - quarter
E - 8th

Tablature Legend
----------------
L  - tied note
x  - dead note
br - bendRelease
lr - let ring
PM - palm mute

=======================================================================================
Section I: Guitars 1 and 2 w/Distortion
=======================================================================================

    E
||------------------|-------------------|-------------------|-------------------|
||------------------|-------------------|-------------------|-------------------|
||*-----------------|-------------------|-------------------|-------------------|
||*-----------------|-------------------|-------------------|-------------------|
||------------------|-------------------|-------------------|-------------------|
||--0-0-7-0-6-0-5-0-|--3-0-5-0-5-6-7-0--|--L-0-7-0-6-0-5-0--|--3-0-5-0-5-6-7-0--|

   E                                            Q    E
|------------------|-------------------|--------------------|------------------||
|------------------|-------------------|--------------------|------------------||
|------------------|-------------------|--------------------|-----------------*||
|------------------|-------------------|--------------------|-----------------*||
|------------------|-------------------|--------------------|------------------||
|--L-0-7-0-6-0-5-0-|--3-0-5-0-5-6-7-3--|--L-3-5-3----3-7-5--|--L-5-7-0-1-1-1-0-||


=======================================================================================
Section II: Guitar 1 w/Distortion
=======================================================================================

    Q                                                 E  Q    E  Q
||--------------|--------------|--------------|-----------------------|
||--------------|--------------|--------------|-----------------------|
||--7--7--7--7--|--7--7--9-10--|--9--7--7--7--|--7----7--5----5--7----|
||--x--x--x--x--|--x--x--x--x--|--x--x--x--x--|--x----x--x----x--x----|
||--5--5--5--5--|--5--5--7--8--|--7--5--5--5--|--5----5--3----3--5----|
||--------------|--------------|--------------|-----------------------|

|--------------|--------------|--------------|--------------||
|--------------|--------------|--------------|--------------||
|--7--7--7--7--|--7--7--7--7--|--6--6--6--6--|--7--7--9--7--||
|--x--x--x--x--|--x--x--x--x--|--x--x--x--x--|--x--x--x--x--||
|--5--5--5--5--|--5--5--5--5--|--4--4--4--4--|--5--5--7--5--||
|--------------|--------------|--------------|--------------||


=======================================================================================
Section II: Guitar 2 w/Distortion
=======================================================================================

    Q
||--------------|--------------|--------------|--------------|
||--------------|--------------|--------------|--------------|
||--------------|--------------|--------------|--------------|
||--8--8--8--8--|--8--8--8--8--|--0--0--0--0--|--0--0--0--0--|
||--8--8--8--8--|--8--8--8--8--|--0--0--0--0--|--0--0--0--0--|
||--8--8--8--8--|--8--8--8--8--|--0--0--0--0--|--0--0--0--0--|

|--------------|--------------|--------------|----------------||
|--------------|--------------|--------------|----------------||
|--------------|--------------|--------------|----------------||
|--8--8--8--8--|--8--8--8--8--|--7--7--7--7--|--8--8--10--10--||
|--8--8--8--8--|--8--8--8--8--|--7--7--7--7--|--8--8--10--10--||
|--8--8--8--8--|--8--8--8--8--|--7--7--7--7--|--8--8--10--10--||


=======================================================================================
Section III: Guitar 1 w/Slight Distortion
=======================================================================================

    Q
lr____________________________________________________________
||--------0-----|--------0-----|--------0-----|--------0-----|
||-----6-----6--|-----6-----6--|-----5-----5--|-----3-----3--|
||*-7-----------|--7-----------|--5-----------|--3-----------|
||*-------------|--------------|--------------|--------------|
||--------------|--------------|--------------|--------------|
||--------------|--------------|--------------|--------------|

lr____________________________________________________________
|--------0-----|--------0-----|--------0-----|--------------||
|-----6-----6--|-----6-----6--|-----3-----3--|-----3-----5--||
|--7-----------|--7-----------|--2-----------|--3-----5----*||
|--------------|--------------|--------------|-------------*||
|--------------|--------------|--------------|--------------||
|--------------|--------------|--------------|--------------||


=======================================================================================
Section III: Guitar 2 w/Distortion
=======================================================================================

    Q
||--------------|--------------|--------------|--------------|
||--------------|--------------|--------------|--------------|
||*-------------|--------------|--------------|--------------|
||*-0--0--0--0--|--0--0--0--0--|--10-10-10-10-|--8--8--8--8--|
||--0--0--0--0--|--0--0--0--0--|--10-10-10-10-|--8--8--8--8--|
||--0--0--0--0--|--0--0--0--0--|--10-10-10-10-|--8--8--8--8--|

|--------------|--------------|--------------|----------------||
|--------------|--------------|--------------|----------------||
|--------------|--------------|--------------|---------------*||
|--8--8--8--8--|--8--8--8--8--|--7--7--7--7--|--8--8--10--10-*||
|--8--8--8--8--|--8--8--8--8--|--7--7--7--7--|--8--8--10--10--||
|--8--8--8--8--|--8--8--8--8--|--7--7--7--7--|--8--8--10--10--||


=======================================================================================
Section IV: Guitar 1 w/Clean Tone
=======================================================================================

    Q
lr____________________________________________________________
||--------5-----|--------5-----|--------------|--------------|
||--------------|--------------|--------6-----|--------6-----|
||*----7-----7--|-----7-----7--|-----7-----7--|-----7-----7--|
||*-------------|--------------|--5-----------|--5-----------|
||--5-----------|--5-----------|--------------|--------------|
||--------------|--------------|--------------|--------------|

lr____________________________________________________________
|--------------|--------------|--------------|--------------||
|--------5-----|--------5-----|--------5-----|--------3-----||
|-----7-----7--|-----7-----7--|-----5-----5--|-----5-----5-*||
|--7-----------|--7-----------|--5-----------|--5----------*||
|--------------|--------------|--------------|--------------||
|--------------|--------------|--------------|--------------||


=======================================================================================
Section V: Guitar 2 w/Distortion
=======================================================================================

    W                       H          W                        E     Q   E     Q
||-------|-------|-------|----------|-------|-------|--------|----------------------||
||-------|-------|-------|----------|-------|-------|--------|----------------------||
||*------|-------|-------|----------|-------|-------|--------|---------------------*||
||*-8----|--L----|--5----|--L-------|--0----|--L----|--10----|--------10--------10-*||
||--8----|--L----|--5----|--L-------|--0----|--L----|--10----|--------10--------10--||
||--8----|--L----|--5----|--L--3br--|--0----|--L----|--10----|--10-10-10--10-10-10--||
PM                                                               .  .      .  .


=======================================================================================
Section VI: Guitars 1 and 2 w/Distortion
=======================================================================================

    E                                         Q
||------------------------|------------------------||
||------------------------|------------------------||
||------------------------|------------------------||
||------------------------|------------------------||
||------------------------|------------------------||
||--3--0----0--5--0----0--|--6--0----0--3--0--5----||


Tab Summary
------------
Intro       : Section I
Verse       : --
Pre Chorus  : Section II
Chorus      : Section III (x2)
Pre-Verse   : Section I
Verse       : --
Pre Chorus  : Section II
Bridge pt.1 : Section IV
Bridge pt.2 : Section IV (x2); Section V (x2)
Bridge pt.3 : Section VI (x4)
Bridge pt.4 : Section I (x2)
Chorus      : Section III (x4)
Outro       : Section I
Добавлено: 21.11.2013
Вам также может быть интересно:
Другие материалы по этой песне:

Страница создана 10.08.2013
http://primanota.ru/megaherz/keine-zeit-chords.htm
Привет, Гость.
Предлагаем пройти революционный курс по гитаре.
Подарок от PrimaNota.Ru, забирай!