PrimaNota.ru - самый крупный в мире бесплатный архив песенных текстов, аккордов, табулатур и нот


Megadeth - Youthinasia - таба, видео

Регистрация Запомнить меня
Войти через:  Facebook Google Twitter Vk Yandex Mail.ru

Megadeth - Youthinasia - таба, видео

Печатать
Просмотров: 66


Band:  (Megadeth)
Album: (Youthinasia)
Song:  (Youthinasia)
Version 1.0 - (12-11-03)

Transcribed By: (Guitarzan)
Email:          (Cowboyfromhell9@aol.com)


.  - palm mute           /  - slide up to
  - slide down to       ~  - vibrato
h  - hammer on           b  - Bend
p  - pull off            Suffixes for bend
t  - tap                 f  - full bend    h - half bend
ph - pinched harmonic    q  - quarter bend t - tap bend
*  - see comment         ^  - Hold bend    r release bend
x  - Stuccatto           ~  - vibrato bend
,  - slight palm mute    () - ghost note, sustained note
  - tremolo note         - Trill

Standard Tunning E A D G B E
first intro/pre-chorus part
|--------------------------|
|o------------------------o|
|--------------------------|x3
|--2---4---5---7-------5---|
|o-2---4---5---7----h-----o|
|--0---2---3---5---6-7-----|

intro/pre-chorus end
|------------------------|
|------------------------|
|------------------------|
|--2---4---5---7---8-7---|
|--2---4---5---7---8-7---|
|--0---2---3---5---6-9---|

first verse part
|------------------------------|
|o----------------------------o|
|------------------------------| x3
|---2-2---0-2------------------|
|o------2-----2---------------o|
|-----------------5-3-5-6-5-3--|
    . . . . .     . . . . . 
Verse end
|------------------------------|
|------------------------------| 
|------------------------------|
|--2-2---0-2-------------0-1---|
|------2-----2---------2-------|
|----------------5-3-5---------|
   . . . . .     . . .
the verse is played twice
and then the pre chorus play
(same as intro)

then the chorus plays
|------------------|
|o----------------o|
|------------------|x3
|------9-----------|
|o--2--7--8--7--5-o|
|---0-----6--5--3--|

the chorus end is just another chourus stoping at the second cord

continue playing the somg and listen to the track for the rythum
and now here comes what i know of the solo
dont worry its easy... i can play it and ive only got a year
and one month experiance under the belt

solo
|------------------------------------------------------------|
|0----------------------------------------------------------o|
|-----------------------------p------------------------------|x2
|-----------------p---p---p--5-0------------------p---p------|
|0------------p--5-0-8-0-7-0------------------p--5-0-8-0-7--o|
|--0-0-0-0-0-6-0-------------------0-0-0-0-0-6-0-------------|

|---------------------|
|---------------------|
|---------------------|
|---------------------|
|-------------9-10-11-|
|-0-0-0-0-0-0-7-8--9--|

the following notes* are played as fast as you can till you get 
to the next note...
listen to the song so youll know how long to play each note

|-----------------------------------------------------|
|--17-----------------------------------15b---h--p----|
|---------16-------15--------14-------------12-15-12--|
|-----------------------------------------------------|
|-----------------------------------------------------|
|-----------------------------------------------------|

|-----------------------------15---------22----------/------|
|--15------17-------18------------------------------/-------|
|--------------------------------------------------/--------|
|-------------------------------------------------/---------|
|------------------------------------------------/----------|
|-----------------------------------------------/-----------|

|---------------------|
|---------------------|
|---------------------|
|---------------------|
|-------------9-10-11-|
|-0-0-0-0-0-0-7-8--9--|
	
then start back at the chorus riff
thats pretty much the whole song
there are a few more solos but there the kind that are nearly imposible
if you have any questions corrections or additions feel free to e-mail me
cowboyfromhell9@aol.com


END


Добавлено: 20.10.2013
Другие материалы по этой песне:
  • Аккорды и текст

Страница создана 20.10.2013
http://primanota.ru/megadeth/youthinasia-chords.htm
Привет, Гость.
Предлагаем пройти революционный курс по гитаре.
Подарок от PrimaNota.Ru, забирай!