PrimaNota.ru - самый крупный в мире бесплатный архив песенных текстов, аккордов, табулатур и нот


Megadeth - Washington Is Next - текст песни, таба, бас-таба, видео

Регистрация Запомнить меня
Войти через:  Facebook Google Twitter Vk Yandex Mail.ru

Megadeth - Washington Is Next - текст песни, таба, бас-таба, видео

Печатать
Просмотров: 453
-------------------------------------------------------------------------------
WASHINGTON IS NEXT - Megadeth
-------------------------------------------------------------------------------
Tabbed by: Chris Dallat
Email: chr15dall@hotmail.co.uk

Tuning: Standard

Intro (Chords Behind Lead)                X2
e|----|--|----|--|---|-|---|-|----|-|---|---|   |----|-|---|
B|----|--|----|--|---|-|---|-|----|-|---|---|   |----|-|---|
G|--9-|--|-9--|--|-7-|-|-9-|-|-9--|-|-5-|-5-|   |----|-|---|
D|--9-|--|-10-|--|-7-|-|-9-|-|-10-|-|-5-|-4-|   |--2-|-|-2-| 
A|--7-|--|-7--|--|-5-|-|-7-|-|-7--|-|-3-|-2-|   |--2-|-|-2-| 
E|----|--|----|--|---|-|---|-|----|-|---|---|   |--0-|-|-0-|
Play second part The First Time but not on the repeat go straight to End of Intro

Intro (Lead Melody)
e|-3-0-0-5-0-0-3-0-0-2-0-0-3-0-2-0---|
B|-----------------------------------|
G|-----------------------------------|X 3
D|-----------------------------------|
A|-----------------------------------|
E|-----------------------------------|

e|-3-0-0-5-0-0-7-0-0-8-0-0-7-0-5-0---|
B|-----------------------------------|
G|-----------------------------------|
D|-----------------------------------|
A|-----------------------------------|
E|-----------------------------------|

e|-3-0-0-5-0-0-3-0-0-2-0-0-3-0-2-0---|
B|-----------------------------------|
G|-----------------------------------|X 2
D|-----------------------------------|
A|-----------------------------------|
E|-----------------------------------|

End Of Intro

Guitar 1
e|-------------------------------------------------|
B|-------------------------------------------------|
G|-------------------------------------------------|
D|-------------------------------------------------|
A|-------------------------------------------------|
E|-12-0-0-7-0-0-8-0-0-5-0-8-0-7-0-0-3-0-0-5-0-2-0--|

Guitar 2
e|-12-0-0-7-0-0-8-0-0-5-0-8-0-7-0-0-3-0-0-5-0-2-0--|
B|-------------------------------------------------|
G|-------------------------------------------------|
D|-------------------------------------------------|
A|-------------------------------------------------|
E|-------------------------------------------------|

Verse
|---------------------------|--------------------------|
|---------------------------|--------------------------|
|*--9--------9--------9-----|-----9--------9-----9--9--|
|*--9--------9--------9-----|-----9--------9-----9--9--|
|---7--7--7--7--7--7--7--7--|--7--7--7--7--7--7--7--7--|
|---------------------------|--------------------------|
   
-----------------------------|------------------------------|
-----------------------------|------------------------------|
---9---------9---------9-----|------9---------9------9---9--|
--10--------10--------10-----|-----10--------10-----10--10--|
---7--7--7---7--7--7---7--7--|--7---7--7--7---7--7---7---7--|
-----------------------------|------------------------------|
 
--------------------------|--------------------------|
--------------------------|--------------------------|
--7--------7--------7-----|-----7--------7-----7--7--|
--7--------7--------7-----|-----7--------7-----7--7--|
--5--5--5--5--5--5--5--5--|--5--5--5--5--5--5--5--5--|
--------------------------|--------------------------|

  
--------------------------|---------------------------|
--------------------------|---------------------------|
--9--------9--------9-----|---------------------------|
--9--------9--------9-----|---------------------------|
--7--7--7--7--7--7--7--7--|--7--9--0--10--9--0--7--9--|
--------------------------|---------------------------|
 
-----------------------------|------------------------------|
-----------------------------|------------------------------|
---9---------9---------9-----|------9---------9------9---9--|
--10--------10--------10-----|-----10--------10-----10--10--|
---7--7--7---7--7--7---7--7--|--7---7--7--7---7--7---7---7--|
-----------------------------|------------------------------|
 
--------------------------|--------------------------|
--------------------------|--------------------------|
--5--------5--------5-----|-----5--------5-----4--4--|
--5--------5--------5-----|-----4--------4-----4--4--|
--3--3--3--3--3--3--3--3--|--2--2--2--2--2--2--2--2--|
--------------------------|--------------------------|

--------------------------|-----------------------|--------------------------|
--------------------------|-----------------------|--------------------------|
--------------------------|-----------------------|--------------------------|
--2--------2--------2-----|-----------------------|--2--------2--------2-----|
--2--------2--------2-----|-----5----5--4----4----|--2--------2--------2-----|
--0--0--0--0--0--0--0--0--|--0--3----3--2----2----|--0--0--0--0--0--0--0--0--|
   
-----------------------|--------------------------|--------------------------|
-----------------------|--------------------------|--------------------------|
-----------------------|--9--------9--------9-----|-----9--------9-----9--9--|
-----------------------|--9--------9--------9-----|-----9--------9-----9--9--|
-----5----5--4----4----|--7--7--7--7--7--7--7--7--|--7--7--7--7--7--7--7--7--|
--0--3----3--2----2----|--------------------------|--------------------------|
   
-----------------------------|------------------------------|
-----------------------------|------------------------------|
---9---------9---------9-----|------9---------9------9---9--|
--10--------10--------10-----|-----10--------10-----10--10--|
---7--7--7---7--7--7---7--7--|--7---7--7--7---7--7---7---7--|
-----------------------------|------------------------------|
  
--------------------------|--------------------------|
--------------------------|--------------------------|
--7--------7--------7-----|-----7--------7-----7--7--|
--7--------7--------7-----|-----7--------7-----7--7--|
--5--5--5--5--5--5--5--5--|--5--5--5--5--5--5--5--5--|
--------------------------|--------------------------|
   
--------------------------|---------------------------|
--------------------------|---------------------------|
--9--------9--------9-----|---------------------------|
--9--------9--------9-----|---------------------------|
--7--7--7--7--7--7--7--7--|--7--9--0--10--9--0--7--9--|
--------------------------|---------------------------|
   
-----------------------------|------------------------------|
-----------------------------|------------------------------|
---9---------9---------9-----|------9---------9------9---9--|
--10--------10--------10-----|-----10--------10-----10--10--|
---7--7--7---7--7--7---7--7--|--7---7--7--7---7--7---7---7--|
-----------------------------|------------------------------|
             
--------------------------|--------------------------|
--------------------------|--------------------------|
--5--------5--------5-----|-----5--------5-----5--5--|
--5--------5--------5-----|-----4--------4-----4--4--|
--3--3--3--3--3--3--3--3--|--2--2--2--2--2--2--2--2--|
--------------------------|--------------------------|

Chorus
--------------------|
--------------------|
--/9----------------|
--/9----------------|
--/7----------------|
--------------------|
                
-------------------|-------------------|-------------------|-------------------|
-------------------|-------------------|-------------------|-------------------|
--L----------------|--5----------------|--L----------------|--7----------------|
--L----------------|--5----------------|--L----------------|--7----------------|
--L----------------|--3----------------|--L----------------|--5----------------|
-------------------|-------------------|-------------------|-------------------|
 
-------------------|--------------------------|--------------------------|
-------------------|--------------------------|--------------------------|
--L----------------|--2--------2--------2-----|-----5--------5-----5--5--|
--L----------------|--2--------2--------2-----|-----4--------4-----4--4--|
--L----------------|--0--0--0--0--0--0--0--0--|--2--2--2--2--2--2--2--2--|
-------------------|--------------------------|--------------------------|
                
--------------------|-------------------|-------------------|
--------------------|-------------------|-------------------|
--/9----------------|--L----------------|--5----------------|
--/9----------------|--L----------------|--5----------------|
--/7----------------|--L----------------|--3----------------|
--------------------|-------------------|-------------------|
              
-------------------|-------------------|-------------------|
-------------------|-------------------|-------------------|
--L----------------|--7----------------|--L----------------|
--L----------------|--7----------------|--L----------------|
--L----------------|--5----------------|--L----------------|
-------------------|-------------------|-------------------|
   
--------------------------|--------------------------|
--------------------------|--------------------------|
--2--------2--------2-----|-----5--------5--5--5--5--|
--2--------2--------2-----|-----4--------4--4--4--4--|
--0--0--0--0--0--0--0--0--|--2--2--2--2--2--2--2--2--|
--------------------------|--------------------------|

Play Intro Again

Then Verse  

Then Chorus And Intro

Riff Behind solo   
--------------------------|--------------------------|
--------------------------|--------------------------|
--------------------------|--------------------------|
--------------------------|--------------------------|X15
--x--2--x-----------2--3--|-----------------2--x--3--|
-----------0--x--3--------|--0--0--0--0--0-----------|

Solo
I haven't got the whole thing tabbed yet but will keep trying it.

Chorus

Intro Again

Outro
Guitar 1
e|-----------------------|-----------------------------|
B|-----------------------|-----------------------------|
G|-----------------------|-----------------------------|
D|---------------5-------|--------5--------------------|X16
A|---7--5--5--7-----7----|--5--7-----7--7--5--7--------|
E|-----------------------|-----------------------------|

After 4 Repeats Guitar 2 comes in
Guitar 2 
e|-----|--|------|--|-----|---|-------------------|--------------------|
B|-----|--|------|--|-----|---|-------------------|--------------------|
G|--16-|--|-17---|--|--14-|---|--14--14-14--15-15-|-16-16--16-16--16---|
D|-----|--|------|--|-----|---|-------------------|--------------------|X2
A|-----|--|------|--|-----|---|-------------------|--------------------|
E|-----|--|------|--|-----|---|-------------------|--------------------|

Добавлено: 23.07.2012
Другие материалы по этой песне:

Страница создана 11.03.2012
http://primanota.ru/megadeth/washington-is-next-chords.htm
Привет, Гость.
Предлагаем пройти революционный курс по гитаре.
Подарок от PrimaNota.Ru, забирай!