PrimaNota.ru - самый крупный в мире бесплатный архив песенных текстов, аккордов, табулатур и нот


Megadeth - This Day We Fight - текст песни, таба, видео

Регистрация Запомнить меня
Войти через:  Facebook Google Twitter Vk Yandex Mail.ru

Megadeth - This Day We Fight - текст песни, таба, видео

Печатать
Просмотров: 173
-------------------------------------------------------------------------------
                        This Day We Fight! - Megadeth
-------------------------------------------------------------------------------
Tabbed by: Chris Rizzo 

Email: chrisrizzo@hotmail.com

Tuning: Standard. The whole album is in standard according to Dave M.

Special Notes: There is a lot of fast tremelo picking in this song. 


Riff 1: Version 1

I'm not going to lie. I'm sure I'm pretty far off on this section. It's real
hard to hear what's happening with this riff because it's low and fast and
the notes are flying by. This is a rough approximation but maybe a good starting
point for someone else's input. Fast trem picking required.

  x4
e|---------------------------------------------------------------------------|
B|---------------------------------------------------------------------------|
G|---------------------------------------------------------------------------|
D|---------------------------------------------------------------------------|
A|-----------------------2h3p2p0---------------------------------------------|
E|-0-0-2-0-0-3-0-0-2-0-0-----------------------------------------------------|
   x x x x x x x x x x x

e|---------------------------------------------------------------------------|
B|---------------------------------------------------------------------------|
G|---------------------------------------------------------------------------|
D|---------------------------------------------------------------------------|
A|-----------------4--7------------------------------------------------------|
E|-0-0-2-0-0-3-0-0-2--5------------------------------------------------------|
   x x x x x x x x

e|---------------------------------------------------------------------------|
B|---------------------------------------------------------------------------|
G|-------------------------------------------------------------------------o-|
D|-------------------------------------------------------------------------o-|
A|-----------------------2h3p2p0---------------------------------------------|
E|-0-0-2-0-0-3-0-0-2-0-0-----------7h8p7---5h7p5--3h5p3--2h3p2---------------|
   x x x x x x x x x x x


Riff 2: Version 2 of above

  x2
e|---------------------------------------------------------------------------|
B|---------------------------------------------------------------------------|
G|---------------------------------------------------------------------------|
D|---------------------------------------------------------------------------|
A|-----------------------2h3p2p0--------------------------2h3p2p0------------|
E|-0-0-2-0-0-3-0-0-2-0-0------------0-0-2-0-0-3-0-0-2-0-0--------------------|
   x x x x x x x x x x x            x x x x x x x x x x x

e|---------------------------------------------------------------------------|
B|---------------------------------------------------------------------------|
G|-------------------------------------------------------------------------o-|
D|-------------------------------------------------------------------------o-|
A|-----------------------2h3p2p0--------------------4--7---------------------|
E|-0-0-2-0-0-3-0-0-2-0-0------------0-0-2-0-0-3-0-0-2--5---------------------|
   x x x x x x x x x x x            x x x x x x x x 


Riff 3:

  x2
e|---------------------------------------------------------------------------|
B|---------------------------------------------------------------------------|
G|-5-------------------------------------------------------------------------|
D|-5-trem pick---------------------------------------------------------------|
A|-3-for-8-beats------------------------2h3p2p0-------------------4--7-------|
E|----------------0-0-2-0-0-3-0-0-2-0-0-----------0-0-2-0-0-3-0-0-2--5-------|
                  x x x x x x x x x x x           x x x x x x x x 

e|---------------------------------------------------------------------------|
B|---------------------------------------------------------------------------|
G|-5-----------------------------------------------------------------------o-|
D|-5-trem pick----------------------------------------------------5--4--2--o-|
A|-3-for-8-beats------------------------2h3p2p0-------------------3--2--0----|
E|----------------0-0-2-0-0-3-0-0-2-0-0-----------0-0-2-0-0-3-0-0------------|
                  x x x x x x x x x x x           x x x x x x x x 

Riff 3: Pre Chorus

This requires very fast relentless tremelo picking. No resting or pausing 
between notes. Be sure to strike the notes on the 7th fret stongly to accent.

  x8
e|---------------------------------------------------------------------------|
B|---------------------------------------------------------------------------|
G|-------------------------------------------------------------------------o-|
D|-0-0-5-6-7-0-0-7-0-0-7-0-8-8-8-8-----------------------------------------o-|
A|---------------------------------------------------------------------------|
E|---------------------------------------------------------------------------|
 
  x4
e|---------------------------------------------------------------------------|
B|---------------------------------------------------------------------------|
G|-0-0-5-6-7-0-0-7-0-0-7-0-8-8-8-8-----------------------------------------o-|
D|-------------------------------------------------------------------------o-|
A|---------------------------------------------------------------------------|
E|---------------------------------------------------------------------------|

  x4
e|---------------------------------------------------------------------------|
B|---------------------------------------------------------------------------|
G|-------------------------------------------------------------------------o-|
D|-0-0-5-6-7-0-0-7-0-0-7-0-8-8-8-8-----------------------------------------o-|
A|---------------------------------------------------------------------------|
E|---------------------------------------------------------------------------|


Riff 4: Chorus

  x3
e|---------------------------------------------------------------------------|
B|---------------------------------------------------------------------------|
G|-------------------------------------------------------------------------o-|
D|-------------------------------------------------------------------------o-|
A|-2---------2---------2--5---7---8---7---5----------------------------------|
E|-0-0-0-0-0-0-0-0-0-0-0--3---5---6---5---3----------------------------------|
     x x x x   x x x x  

e|---------------------------------------------------------------------------|
B|---------------------------------------------------------------------------|
G|---------------------8-----------------------------------------------------|
D|---------------------8-----------Return to Riff 2--------------------------|
A|-5--7--8-------5--7--6-----------------------------------------------------|
E|-3--5--6-------3--5--6-----------------------------------------------------|
                       

End the song by playing Riff 1 repeatedly.



| /  slide up
| \  slide down
| h  hammer-on
| p  pull-off
| ~  vibrato
| +  harmonic
| x  Mute note
===============================================================================



Добавлено: 05.03.2012
Другие материалы по этой песне:

Страница создана 05.03.2012
http://primanota.ru/megadeth/this-day-we-fight-chords.htm
Привет, Гость.
Предлагаем пройти революционный курс по гитаре.
Подарок от PrimaNota.Ru, забирай!