PrimaNota.ru - самый крупный в мире бесплатный архив песенных текстов, аккордов, табулатур и нот


Megadeth - Endgame (album) - таба, видео

Регистрация Запомнить меня
Войти через:  Facebook Google Twitter Vk Yandex Mail.ru

Megadeth - Endgame (album) - таба, видео

Печатать
Просмотров: 78
-------------------------------------------------------------------------------
                             ENDGAME (Album) - Megadeth
-------------------------------------------------------------------------------
Tabbed by: I DID NOT TAB THIS!
E-mail: tomholloway00@gmail.com

Tuning: Standard (EADGBe)

1. Dialectic Chaos (Tabbed by Asterix_13)

Tuning: Standard (EADGBE)

Intro

E|---------------------------------------------|
A|---------------------------------------------|
D|---------------------------------------------|
G|-2-----5-----2-----5-----2-----5-------------|
B|-0---5-3---5-0---5-3---5-0---5-3---5-3---5---|
E|-----3-3---3-----3-3---3-----3-3---3-1---3---| x2


Verse 1


Verse Rhythm

|----------------------------------|
|----------------------------------|
|----------------------------------|
|-2----------2-----5----------5----|
|-0--0-0-0-0-0--5--3--3-3-3-3-3--5-|
|---------------3----------------3-| x3

Then. . 

|---------------------------------------------|
|---------------------------------------------|
|---------------------------------------------|
|---------------------------------------------|
|-3----------3----------5----------5----------|
|-1--1-1-1-1-1--1-1-1-1-3--3-3-3-3-3--3-3-3-3-|


Verse Lead

|-------------|
|-------------|
|-------------|
|-------0h5h7-|
|-0h5h7-------|
|-------------| x12

Then it finishes with a harmony

Guitar 1
|-------------------------------------------------|
|-------------------------------------------------|
|-5-4-2-4-2---2-----------------------------------|
|-----------5---5-3-5-3-2-5-2-3---2---------------|
|-------------------------------5---3-5-2-3---2---|
|-------------------------------------------5---3-|

Guitar 2
|-------------------------------------------------|
|-------------------------------------------------|
|-9-7-5-7-5-4-5-4---4-----4-----------------------|
|-----------------7---7-5---5-7-3-5-2-3---2-------|
|---------------------------------------5---3-5-2-|
|-------------------------------------------------|


Play the entire verse x2


Solo 1 rhythm

|------------------------------------------|
|------------------------------------------|
|----------2---2-------------------2-4-2---|
|----------2-4-2--4-2----------2-4-2-4-2-4-|
|-4--4-4-4---4----4-2-4--4-4-4-2-4-------4-|
|-2--2-2-2------------2--2-2-2-------------| x2

|------------------------------------------|
|------------------------------------------|
|----------4---4-------------------4-6-4---|
|----------4-6-4--6-4----------4-6-4-6-4-6-|
|-6--6-6-6---6----6-4-6--6-6-6-4-6-------6-|
|-4--4-4-4------------4--4-4-4-------------|

|-------------------------------------------|
|-------------------------------------------|
|--------------5-7-5----------------7-9-7---|
|----------5-7-5-7-5-7----------7-9-7-9-7-9-|
|-7--7-7-7-5-7-------7-9--9-9-9-7-9-------9-|
|-5--5-5-5-------------7--7-7-7-------------|



Solo 1


|------------------------------------------------------------------------------------------------|
|-------14-------14-19-14-17-14-16-14----14-14------------------------------14-------------16----|
|-17b18----17b18----------------------17-------17-16-14----16-14~-----14-16-14b15----14-16-16b17-|
|-------------------------------------------------------16---------16-------------16-------------|
|------------------------------------------------------------------------------------------------|
|------------------------------------------------------------------------------------------------|


|----------------------------------16h18p16p14-17h19p17p14-16h18p16p14-------------|
|----------16h17p16p14-17h19p17p14-------------------------------------17h19p17p14-|
|----------------------------------------------------------------------------------|
|-16-14-16-------------------------------------------------------------------------|
|----------------------------------------------------------------------------------|
|----------------------------------------------------------------------------------|


|-21b23-21b23---21-19----19-------------16----------------------------|
|---------------------21----21\19-16h19----19-16-19-16\14----------14-|
|---------------------------------------------------------16-13-16----|
|---------------------------------------------------------------------|
|---------------------------------------------------------------------|
|---------------------------------------------------------------------|
 
                                                                 
|-22p20p17-------------------------------------|
|----------22p20p17----17-20-22-20-17----------|
|-------------------21----------------20-19-17-|
|----------------------------------------------|
|----------------------------------------------|
|----------------------------------------------|


                  T                          T         
|-14-17-19-17h19-24-19p17p14-14-17-19-17h19-24-19p17p14-24b26-|
|-------------------------------------------------------------|
|-------------------------------------------------------------| The last bend holds
|-------------------------------------------------------------| through the next
|-------------------------------------------------------------| solo
|-------------------------------------------------------------|


Solo 2 rhythm (same as solo 1)


|------------------------------------------|
|------------------------------------------|
|----------2---2-------------------2-4-2---|
|----------2-4-2--4-2----------2-4-2-4-2-4-|
|-4--4-4-4---4----4-2-4--4-4-4-2-4-------4-|
|-2--2-2-2------------2--2-2-2-------------| x2

|------------------------------------------|
|------------------------------------------|
|----------4---4-------------------4-6-4---|
|----------4-6-4--6-4----------4-6-4-6-4-6-|
|-6--6-6-6---6----6-4-6--6-6-6-4-6-------6-|
|-4--4-4-4------------4--4-4-4-------------|

|-------------------------------------------|
|-------------------------------------------|
|--------------5-7-5----------------7-9-7---|
|----------5-7-5-7-5-7----------7-9-7-9-7-9-|
|-7--7-7-7-5-7-------7-9--9-9-9-7-9-------9-|
|-5--5-5-5-------------7--7-7-7-------------|


Solo 2

|----------14-9----17-14----14-16-17-16-14---------------------------------14-16-17-19-|
|-14-10---------10-------14----------------14----------------------------14------------|
|-------11------------------------------------14-----------------------14--------------|
|--------------------------------------------------------------------14----------------|
|------------------------------------------------16----------------14------------------|
|---------------------------------------------------17-16-14-16-17---------------------|


|-21p19p17\16\14\12---------------------------------------------/16-14-------------|
|-------------------21-17----------------------------------------------15----------|
|-------------------------18------------------------------11b12-----------16-15-14-|
|----------------------------19-18-16-18----18~--------12--------------------------|
|----------------------------------------19---------12-----------------------------|
|------------------------------------------------14--------------------------------|


|-----------------------------------------------------------------|
|----------------------12-16-12-16-12-16-15b16~-17-19-16----------|
|--------------------------------------------------------16-14-13-|
|-13h14p13----13-14-16--------------------------------------------|
|----------16-----------------------------------------------------|
|-----------------------------------------------------------------|


Next bar is a harmony

Guitar 1
|----------12----12/17----------------|
|-------13----13-------17----17-------|
|----14-------------------17----17----|
|-14-------------------------------19-|
|-------------------------------------|
|-------------------------------------|

Guitar 2
|-------------------------------------|
|----------13----13/18----------------|
|-------14----14-------17----17-------|
|----15-------------------19----19----|
|-15-------------------------------19-|
|-------------------------------------|


|-19-15-14\10----12----------14-12----|
|-------------12----14-12-15-------12-|
|-------------------------------------|
|-------------------------------------|
|-------------------------------------|
|-------------------------------------|


Solo 3 rhythm

|------------------------------------|
|------------------------------------|
|------------------------------------|
|------------------5------------5----|
|-7----------7--5--3--3-3-3-3-3-3--5-|
|-5--5-5-5-5-5--3------------------3-| x3


|---------------------------------------------|
|---------------------------------------------|
|---------------------------------------------|
|---------------------------------------------|
|-3----------3----------5----------5----------|
|-1--1-1-1-1-1--1-1-1-1-3--3-3-3-3-3--3-3-3-3-|

|------------------------------------|
|------------------------------------|
|------------------------------------|
|------------------5------------5----|
|-7----------7--5--3--3-3-3-3-3-3--5-|
|-5--5-5-5-5-5--3------------------3-| x3


|---------------------------------------------|
|---------------------------------------------|
|---------------------------------------------|
|---------------------------------------------|
|-3----------3----------5----------5----------|
|-1--1-1-1-1-1--1-1-1-1-3--3-3-3-3-3--3-3-3-3-|


Solo 3

 
|----------------------------------------|
|----------------------------------------|
|------|12-beats|--17--16-------|16 beats|
|-12b14~~~~~~~~~-----------12b14~~~~~~~~~|
|----------------------------------------|
|----------------------------------------|


|------------------------------------------------------------------------------|
|--------------------------------------------------------------17b18--15-18b20-|
|-14--12-17b19--19-17-16-14--16-14\10-9b10r9--14--12-17b19--16-----------------|
|------------------------------------------------------------------------------|
|------------------------------------------------------------------------------|
|------------------------------------------------------------------------------|


Solo 4 rhythm

|---------------------------------|
|---------------------------------|
|---------------------------------|
|-7----------7--5---------------5-|
|-5--5-5-5-5-5--3--3---------3--3-|
|------------------1-1-1-1-1-1----| x3


|---------------------------------------------|
|---------------------------------------------|
|---------------------------------------------|
|-3----------3----------5----------5----------|
|-1--1-1-1-1-1--1-1-1-1-3--3-3-3-3-3--3-3-3-3-|
|---------------------------------------------|


Solo 4

|-------------------------------------------------------------------------|
|-18p15-17p15----15-18p15-17p15----15-18p15-17p15----15-------------------|
|-------------17----------------17----------------17----17-16-14-16-14----|
|----------------------------------------------------------------------17-|
|-------------------------------------------------------------------------|
|-------------------------------------------------------------------------|


|-------------------------------------------------------------------------|
|-18p15-17p15----15-18p15-17p15----15-18-17-15-17-15----15----------------|
|-------------17----------------17-------------------17----17-16-17-16-14-|
|-------------------------------------------------------------------------|
|-------------------------------------------------------------------------|
|-------------------------------------------------------------------------|

|-------------------------------------------------------------------------|
|-18p15-17p15----15-18p15-17p15----15-18p15-17p15----15-------------------|
|-------------17----------------17----------------17----17-16-14-16-14----|
|----------------------------------------------------------------------17-|
|-------------------------------------------------------------------------|
|-------------------------------------------------------------------------|

|-------------------------------------17-13----------13-19-13----------15-----|
|-20-15----------15-20-15----------15-------15-13-15----------17-15-17----17~-|
|-------17-14-17----------17-14-17--------------------------------------------|Last note holds out 
|-----------------------------------------------------------------------------|through the next
|-----------------------------------------------------------------------------| solo
|-----------------------------------------------------------------------------|


Solo 5 rhythm

|----------------------------------|
|----------------------------------|
|----------------------------------|
|----------------------------------|
|-2----------2--0--5----------5--0-|
|-0--0-0-0-0-0--0--3--3-3-3-3-3--0-| x3

|---------------------------------------------|
|---------------------------------------------|
|---------------------------------------------|
|-5----------5----------7----------7----------|
|-3--3-3-3-3-3--3-3-3-3-5--5-5-5-5-5--5-5-5-5-|
|---------------------------------------------|


Solo 5 

|-15-12-14----12----19-15-17-14-15-12-------------------23-19-20-17-19----|
|----------16----13-------------------20-17-19-16-17-------------------20-|
|----------------------------------------------------17-------------------|
|-------------------------------------------------------------------------|
|-------------------------------------------------------------------------|
|-------------------------------------------------------------------------|

|-----------------------------------------------------------------------------------------------|
|-22-19-20-19-17-19----------19-20-22-20b22--20h19h17-20b22---------10---12---12b13-10-12-------|
|-------------------21-19-21---------------------------------9b10-9----9----9-------------11b12-|
|-----------------------------------------------------------------------------------------------|
|-----------------------------------------------------------------------------------------------|
|-----------------------------------------------------------------------------------------------|

|----------12----12-15-12----12-------14-15-17h19h21h22p21p19p17-15-14---------------------------|
|-------13----13----------13----13-------------------------------------15-13---------------------|
|-12-16----------------------------16----------------------------------------14------------11b12~|
|-------------------------------------------------------------------------------16-12------------|
|-------------------------------------------------------------------------------------15-14------|
|------------------------------------------------------------------------------------------------|

Solo 6 rhythm

|------------------------------------------|
|------------------------------------------|
|----------2---2-------------------2-4-2---|
|----------2-4-2--4-2----------2-4-2-4-2-4-|
|-4--4-4-4---4----4-2-4--4-4-4-2-4-------4-|
|-2--2-2-2------------2--2-2-2-------------| x2

|------------------------------------------|
|------------------------------------------|
|----------4---4-------------------4-6-4---|
|----------4-6-4--6-4----------4-6-4-6-4-6-|
|-6--6-6-6---6----6-4-6--6-6-6-4-6-------6-|
|-4--4-4-4------------4--4-4-4-------------|

|-------------------------------------------|
|-------------------------------------------|
|--------------5-7-5----------------7-9-7---|
|----------5-7-5-7-5-7----------7-9-7-9-7-9-|
|-7--7-7-7-5-7-------7-9--9-9-9-7-9-------9-|
|-5--5-5-5-------------7--7-7-7-------------|


Solo 6

|-21\20p17-------------------------------------------------------------|
|---------17-19-----------------------------------------------16----14-|
|---------------18p17p16p14h16-16p14p11h14-----------14-------16----14-|
|-------------------------------------------16-16-16----16-16----16----|
|----------------------------------------------------------------------|
|----------------------------------------------------------------------|

|-------------------------------------------------------------------------------|
|----14h17p14h17-14----14-------------------------------------------------------|
|-16----------------16----17-16-14----14-14----14-------------------------------|
|----------------------------------16-------16----16-15-14-11-14-11-------------|
|-------------------------------------------------------------------15-14-12-11~|
|-------------------------------------------------------------------------------|

|----------------------16-22--12h15p12----17p15p12----12h15p12----17p15p12----|
|-------------------15-----------------15----------15----------15----------15-|
|-13-11----------13-----------------------------------------------------------|
|-------12----12--------------------------------------------------------------|
|----------11-----------------------------------------------------------------|
|-----------------------------------------------------------------------------|

|-14h17p14----14h19p14----14h17p14----14h19p14----14~|
|----------17----------17----------17----------17----|
|----------------------------------------------------|Last note holds through
|----------------------------------------------------|the next solo again
|----------------------------------------------------|
|----------------------------------------------------|


Solo 7 rhythm

|------------------------------------------|
|------------------------------------------|
|----------2---2-------------------2-4-2---|
|----------2-4-2--4-2----------2-4-2-4-2-4-|
|-4--4-4-4---4----4-2-4--4-4-4-2-4-------4-|
|-2--2-2-2------------2--2-2-2-------------| x2

|------------------------------------------|
|------------------------------------------|
|----------4---4-------------------4-6-4---|
|----------4-6-4--6-4----------4-6-4-6-4-6-|
|-6--6-6-6---6----6-4-6--6-6-6-4-6-------6-|
|-4--4-4-4------------4--4-4-4-------------|

|----------------------|
|----------------------|
|--------------5-7-5---|
|----------5-7-5-7-5-7-|
|-7--7-7-7-5-7-------7-|
|-5--5-5-5-------------|


Solo 7 - Very fast with lots of sweep picking
                                            T              T
|---------------------------------14-17-19-22-19-15-14-19-22-19-14/21-------------------|
|-17b19-17--17h19---------------14------------------------------------22-19-14----------|
|-----------------18b19-------14----------------------------------------------14--------|
|---------------------------14--------------------------------------------------16------|
|-------------------------14------------------------------------------------------17-14-|
|-----------------------15--------------------------------------------------------------|

|-------14-17-19-21-19-21-21-19-17-19-17-16-19-17-16-17-16-14-------------------|
|-----14------------------------------------------------------17-16-14----------|
|---14-----------------------------------------------------------------16-14-13-|
|-12----------------------------------------------------------------------------|
|-------------------------------------------------------------------------------|
|-------------------------------------------------------------------------------|

|-15b16-15b16-15b16-15b16-15b16-15b16-16-12----12---------------------------------|
|-------------------------------------------16----16-12----------16-12------------|
|-------------------------------------------------------15-13----------15-13------|
|-------------------------------------------------------------14------------14-13-|
|---------------------------------------------------------------------------------|
|---------------------------------------------------------------------------------|

|-17-17-17-13----13-------|
|-------------17----17-13-|
|-------------------------|
|-------------------------|
|-------------------------|
|-------------------------|


Ending

|---------------|
|---------------|
|---------------|
|-4-4-4-5-4-2---|
|-2-2-2-3-2-0-4-|
|-------------2-|


|-19b21-19b21-19b21-22b24r-19----|
|-----------------------------19~|
|--------------------------------|
|--------------------------------|
|--------------------------------|
|--------------------------------|


2. This Day We Fight! (Tabbed by Big Bozz)

Tuning: Standard


Riff 1
e|---------------------------------|
B|---------------------------------|
G|---------------------------------|
D|---------------------------------|
A|-------------------------2h3p2p0-|
E|-2-2-0-3-3-0-2-2-0-3-3-0---------|
   * * * * * * * * * * * *
e|--------------------------|
B|--------------------------|
G|--------------------------|
D|------------------------2-|
A|---------------------4--0-|
E|-2-2-0-3-3-0-2-2-0-0-2----|
   * * * * * * * * * *
e|---------------------------------|
B|---------------------------------|
G|---------------------------------|
D|---------------------------------|
A|-------------------------2h3p2p0-|
E|-2-2-0-3-3-0-2-2-0-3-3-0---------|
   * * * * * * * * * * * *
e|---------------------------------|
B|---------------------------------|
G|---------------------------------|
D|---------------------------------|
A|---------------------------------|
E|-7h8p7p0-5h7p5p0-3h5p3p0-2h3p2p0-|


Riff 2
e|---------------------------------|
B|---------------------------------|
G|---------------------------------|
D|---------------------------------|
A|-------------------------2h3p2p0-|
E|-2-2-0-3-3-0-2-2-0-3-3-0---------|
   * * * * * * * * * * * *
e|---------------------------------|
B|---------------------------------|
G|---------------------------------|
D|---------------------------------|
A|-------------------------2h3p2p0-|
E|-2-2-0-3-3-0-2-2-0-3-3-0---------|
   * * * * * * * * * * * *
e|---------------------------------|
B|---------------------------------|
G|---------------------------------|
D|---------------------------------|
A|-------------------------2h3p2p0-|
E|-2-2-0-3-3-0-2-2-0-3-3-0---------|
   * * * * * * * * * * * *
e|---------------------------|
B|---------------------------|
G|---------------------------|
D|---------------------------|
A|-------------------2----5--|
E|-2-2-0-3-3-0-2-2-0-0--0-3--|
   * * * * * * * * *    *


Riff 3
e|----------------------------------|
B|----------------------------------|
G|----------------------------------|
D|----------------------------------|
A|-33333333333333333333333333333333-|
E|----------------------------------|

Guitar fill
e|----------------------------------|
B|----------------------------------|
G|-5-----------------------10----12-|
D|----------------------------------|
A|-3------------------------8----10-|
E|----------------------------------|


1st ending:
e|---------------------------------|
B|---------------------------------|
G|---------------------------------|
D|---------------------------------|
A|-------------------------2h3p2p0-|
E|-2-2-0-3-3-0-2-2-0-3-3-0---------|
   * * * * * * * * * * * *
e|---------------------------|
B|---------------------------|
G|---------------------------|
D|---------------------------|
A|-------------------2----5--|
E|-2-2-0-3-3-0-2-2-0-0--0-3--|
   * * * * * * * * *    *

2nd ending:
e|---------------------------------|
B|---------------------------------|
G|---------------------------------|
D|---------------------------------|
A|-------------------------2h3p2p0-|
E|-2-2-0-3-3-0-2-2-0-3-3-0---------|
   * * * * * * * * * * * *
e|-------------------------|
B|-------------------------|
G|-------------------------|
D|-----------------5--4----|
A|-----------------3--2--5-|
E|-2-2-0-3-3-0-2-0-------3-|
   * * * * * * * *


Riff 4 (Solo Rhythm)
e|------------------------------|
B|------------------------------|
G|------------------------------|
D|-7p5---7p5---7p5-8888-------5-|
A|-----0-----0----------5h6h7---|
E|------------------------------|
       *     *
e|------------------------------|
B|------------------------------|
G|----------------------------5-|
D|-7p5---7p5---7p5-8888---------|
A|-----0-----0----------5h6h7---|
E|------------------------------|
       *     *
e|------------------------------|
B|------------------------------|
G|------------------------------|
D|-7p5---7p5---7p5-8888-------5-|
A|-----0-----0----------5h6h7---|
E|------------------------------|
       *     *
e|------------------------------|
B|------------------------------|
G|------------------------------|
D|-7p5---7p5---7p5-8888---------|
A|-----0-----0----------7p6p5---|
E|----------------------------8-|
       *     *


Solo (Broderick)
e|----------------------------------------------|
B|-15-----16---------------15-----16-----19b21~-|
G|-17b19--18b20-----15-17--17b19--18b20---------|
D|---------------19-----------------------------|
A|----------------------------------------------|
E|----------------------------------------------|

e|-------------------------|
B|-15-----16---------------|
G|-17b19--18b20-----15-17--|
D|---------------19--------|
A|-------------------------|
E|-------------------------|


e|-15h17h20p17p15----15h17h20p17p15-------------------|
B|----------------17----------------19p17p15----15h17-|
G|-------------------------------------------17-------|
D|----------------------------------------------------|
A|----------------------------------------------------|
E|----------------------------------------------------|

e|-15h17h20p17p15---------------17-18-20-18-17----------|
B|----------------20b22r20b22~-----------------20-18-17-|
G|------------------------------------------------------|
D|------------------------------------------------------|
A|------------------------------------------------------|
E|------------------------------------------------------|

e|---------------20b23~-|
B|-20b22r20b22~---------|
G|----------------------|
D|----------------------|
A|----------------------|
E|----------------------|

e|-17-12-15----------------|
B|----------13-17----------|
G|----------------14-17----|
D|----------------------17-|
A|-------------------------|
E|-------------------------|

e|-20-15-17-----------------------------|
B|----------15-20-----------------------|
G|----------------17-19----17--(17)b20~-|
D|----------------------19--------------|
A|--------------------------------------|
E|--------------------------------------|

End Solo


Riff 5
e|------------------------------|
B|------------------------------|
G|-7p5---7p5---7p5-8888-------5-|
D|-----0-----0----------5h6h7---|
A|------------------------------|
E|------------------------------|
       *     *
e|------------------------------|
B|----------------------------6-|
G|-7p5---7p5---7p5-8888---------|
D|-----0-----0----------5h6h7---|
A|------------------------------|
E|------------------------------|
       *     *
e|------------------------------|
B|------------------------------|
G|-7p5---7p5---7p5-8888-------5-|
D|-----0-----0----------5h6h7---|
A|------------------------------|
E|------------------------------|
       *     *
e|------------------------------|
B|------------------------------|
G|-7p5---7p5---7p5-8888---------|
D|-----0-----0----------7p6p5---|
A|----------------------------7-|
E|------------------------------|
       *     *


Play Riff 4   Solo Rhythm


Solo (Mustaine)
e|-22b24r22--20h22p20p17-20p17-------------------------------------|
B|-----------------------------22p20p17-20h22p20p17-20p17----------|
G|--------------------------------------------------------21p20p17-|
D|-----------------------------------------------------------------|
A|-----------------------------------------------------------------|
E|-----------------------------------------------------------------|

e|----------------------------------------------------------|
B|-------------17-19p17-19p17-------------------------------|
G|-20p19p17-19----------------20p19p17-19h20p19p17-19p17----|
D|-------------------------------------------------------19-|
A|----------------------------------------------------------|
E|----------------------------------------------------------|

e|---------------------------------------------------------------------|
B|---------------------------------------------------------------------|
G|----------17-19-17---------------------------------------------------|
D|-19p18p17----------19p18p17-18p17-18p17------------------------------|
A|----------------------------------------19p18p17-17h18h19-19~--(19)\-|
E|---------------------------------------------------------------------|

End Solo


Riff 6                                           x3
e|------------------------------------------------|
B|------------------------------------------------|
G|------------------------------------------------|
D|------------------------------------------------|
A|------2--------2----5----7----8----7----5-------|
E|-0000-0-000000-0-00-3--0-5--0-6----5--0-3-(3)p0-|
   ****   ******   **    *    *         *
e|-----------------------------------|
B|-----------------------------------|
G|-----------------------------------|
D|--------------------------------8--|
A|-5----7----8----(8)\--5----7----6--|
E|-3--0-5--0-6----(6)\--3--0-5--0-6--|
      *    *               *    *


Play Riff 2
Play Riff 3
Play Riff 4   Solo Rhythm

Solo (Broderick)
e|-----------------------------|
B|----------------------20b22~-|
G|-19b21--(21)r19p17-----------|
D|-------------------19--------|
A|-----------------------------|
E|-----------------------------|

e|-----------------------20b22~-|
B|-20b22---(22)r20p17-----------|
G|--------------------19--------|
D|------------------------------|
A|------------------------------|
E|------------------------------|

e|-22-20-17----------------17----------------------|
B|----------20-17----17-20----20-17----------17-20-|
G|----------------19----------------19-17-19-------|
D|-------------------------------------------------|
A|-------------------------------------------------|
E|-------------------------------------------------|

e|-----------------------------|
B|-----------17----------------|
G|-17~----------19b21--(21)r19-|
D|--------19-------------------|
A|-----------------------------|
E|-----------------------------|

e|-20p17----20p17----20p17-18p17----18p17----18p17-|
B|-------17-------17-------------17-------17-------|
G|-------------------------------------------------|
D|-------------------------------------------------|
A|-------------------------------------------------|
E|-------------------------------------------------|

e|-20p17----20p17----20p17-22p17----22p17----22p17-------|
B|-------17-------17-------------17-------17-------18h20-|
G|-------------------------------------------------------|
D|-------------------------------------------------------|
A|-------------------------------------------------------|
E|-------------------------------------------------------|

e|-17-------------------------------17-----------------------------|
B|----20p18p17----------------18h20----20p18p17--------------------|
G|-------------19----------19-------------------19p17--------------|
D|----------------------19----------------------------20p19p17-19~-|
A|----------------17h20--------------------------------------------|
E|-----------------------------------------------------------------|

End Solo


Play Riff 5
Play Riff 4   Solo Rhythm

Solo (Mustaine)
e|-5h8p5---6h9p6---7h10p7---8h11p8----9h12p9----|
B|-------7-------8--------9--------10--------11-|
G|----------------------------------------------|
D|----------------------------------------------|
A|----------------------------------------------|
E|----------------------------------------------|

e|-8h11p8----9h12p9----10h13p10----11h14p11----12h15p12----|
B|--------10--------11----------12----------13----------14-|
G|---------------------------------------------------------|
D|---------------------------------------------------------|
A|---------------------------------------------------------|
E|---------------------------------------------------------|

e|-11h14p11----12h15p12----13h16p13----14h17p14----15h18p15----|
B|----------13----------14----------15----------16----------17-|
G|-------------------------------------------------------------|
D|-------------------------------------------------------------|
A|-------------------------------------------------------------|
E|-------------------------------------------------------------|

e|-14h17p14----15h18p15----16h19p16----17h20p17----18h21p18----|
B|----------16----------17----------18----------19----------20-|
G|-------------------------------------------------------------|
D|-------------------------------------------------------------|
A|-------------------------------------------------------------|
E|-------------------------------------------------------------|

e|-22b24~----(24)r22\-|
B|--------------------|
G|--------------------|
D|--------------------|
A|--------------------|
E|--------------------|

End Solo


Play Riff 6

Riff 7
e|---------------------------------|
B|---------------------------------|
G|---------------------------------|
D|---------------------------------|
A|-------------------------2h3p2p0-|
E|-2-2-0-3-3-0-2-2-0-3-3-0---------|
   * * * * * * * * * * * *
e|--------------------------|
B|--------------------------|
G|--------------------------|
D|------------------------2-|
A|-----------------/5--4--0-|
E|-2-2-0-3-3-0-2-0-/3--2----|
   * * * * * * * *
e|---------------------------------|
B|---------------------------------|
G|---------------------------------|
D|---------------------------------|
A|-------------------------2h3p2p0-|
E|-2-2-0-3-3-0-2-2-0-3-3-0---------|
   * * * * * * * * * * * *
e|---------------------------------|
B|---------------------------------|
G|---------------------------------|
D|---------------------------------|
A|---------------------------------|
E|-7h8p7p0-5h7p5p0-3h5p3p0-2h3p2p0-|

e|---------------------------------|
B|---------------------------------|
G|---------------------------------|
D|---------------------------------|
A|-------------------------2h3p2p0-|
E|-2-2-0-3-3-0-2-2-0-3-3-0---------|
   * * * * * * * * * * * *
e|--------------------------|
B|--------------------------|
G|--------------------------|
D|------------------------2-|
A|-----------------/5--4--0-|
E|-2-2-0-3-3-0-2-0-/3--2----|
   * * * * * * * *
e|---------------------------------|
B|---------------------------------|
G|---------------------------------|
D|---------------------------------|
A|-------------------------2h3p2p0-|
E|-2-2-0-3-3-0-2-2-0-3-3-0---------|
   * * * * * * * * * * * *
e|-------------------------------------|
B|-------------------------------------|
G|-------------------------------------|
D|-------------------------------------|
A|-10h12p10p0-9h10p9p0-7h9p7p0-5h7p5p0-|
E|-------------------------------------|

Guitar fill                  x2
e|----------------------------|
B|----------------------------|
G|----------------------------|
D|----------------------------|
A|-4----4----4--------4----4--|
E|-2----2----2--------2----2--|



Play Riff 1
Play Riff 1   Solo Rhythm

After last play of Riff 1 the ending is:
e|---------------------------------------------|
B|---------------------------------------------|
G|---------------------------------------------|
D|---------------------------------------------|
A|-10h12p10p0-9h10p9p0-7h9p7p0-5h7p5p0-4--(4)\-|
E|-------------------------------------2--(2)\-|


Ending solos:


Solo (Mustaine)
e|----------------------------------|
B|----------------------------------|
G|----------------------------------|
D|-16161616161616161616161616161616-|
A|----------------------------------|
E|----------------------------------|

e|----------------------------------|
B|-14b15-------14b15-------14b15----|
G|-14b15-------14b15-------14b15----|
D|-------1616--------1616--------16-|
A|----------------------------------|
E|----------------------------------|

e|----------------------------------|
B|----------------------------------|
G|----------------------------------|
D|-14161616161616161616161616161616-|
A|----------------------------------|
E|----------------------------------|

e|------------------------------------|
B|-14-----16-----14-----16-----14-----|
G|-14-----16-----14-----16-----14-----|
D|-----16-----16-----16-----16-----16-|
A|------------------------------------|
E|------------------------------------|

e|-------14-------------14-------------14-------|
B|----------17p14-17b19----17p14----------17p14-|
G|-16b18-------------------------16b18----------|
D|----------------------------------------------|
A|----------------------------------------------|
E|----------------------------------------------|

e|-------14-------------------------|
B|-17b19----17p14-------14-17p14----|
G|----------------16b18----------16-|
D|----------------------------------|
A|----------------------------------|
E|----------------------------------|

e|-------------------------------------------------|
B|-------------------------------------------------|
G|-17p16p14-16-16p15p14----14----------------------|
D|----------------------16----16p15p14-16p15p14-16-|
A|-------------------------------------------------|
E|-------------------------------------------------|

e|-----------------------------------------------------|
B|-----------------------------------------------------|
G|-----------------------------------------------------|
D|-16p15p14----15p14-------14----------------------16~-|
A|----------16-------16p15----16p15p14-16p15p14--------|
E|----------------------------------------------17-----|

End Solo


Solo (Broderick)
e|-------------------------------------------14h15p14----14~-|
B|------------------------17--15--17-17b19~-----------17-----|
G|-18b19--18~----(18)\14-------------------------------------|
D|-----------------------------------------------------------|
A|-----------------------------------------------------------|
E|-----------------------------------------------------------|

e|------------------------------------------------------|
B|-------------------17-19-20-19b20--(20)r19-17~--(17)\-|
G|----------16-18-19------------------------------------|
D|-16-17-19---------------------------------------------|
A|------------------------------------------------------|
E|------------------------------------------------------|

e|-/17--15p14-------------------------14h15h17p15p14--------|
B|------------17p15p14----------14h15----------------17b19~-|
G|---------------------16p14h16-----------------------------|
D|----------------------------------------------------------|
A|----------------------------------------------------------|
E|----------------------------------------------------------|

End Solo


Solo (Mustaine)
e|-14-19p17p14----------------------------------------|
B|-------------19-19p17p14-19-19p17p14-------------19-|
G|-------------------------------------17-17p16p14----|
D|----------------------------------------------------|
A|----------------------------------------------------|
E|----------------------------------------------------|

e|-------------------------------------------------|
B|-19p17p14----------------------------------------|
G|----------17-17p16p14-17-17p16p14-------------17-|
D|----------------------------------16-16p15p14----|
A|-------------------------------------------------|
E|-------------------------------------------------|

e|-------------------------------------------------|
B|-------------------------------------------------|
G|-17p16p14----------------------------------------|
D|----------16-16p15p14-16-16p15p14-------------16-|
A|----------------------------------16-16p15p14----|
E|-------------------------------------------------|

e|-------------------------------------------------|
B|-------------------------------------------------|
G|-------------------------------------------------|
D|-16p15p14----------------------------------------|
A|----------16-16p15p14-16-16p15p14----------------|
E|----------------------------------17-17p16p14\12-|

e|-19p17p14----------------------------------------|
B|----------19-19p17p14-19-19p17p14-------------19-|
G|----------------------------------17-17p16p14----|
D|-------------------------------------------------|
A|-------------------------------------------------|
E|-------------------------------------------------|

e|-------------------------------------------------|
B|-19p17p14----------------------------------------|
G|----------17-17p16p14-17-17p16p14-------------17-|
D|----------------------------------16-16p15p14----|
A|-------------------------------------------------|
E|-------------------------------------------------|

e|-------------------------------------------------|
B|-------------------------------------------------|
G|-17p16p14----------------------------------------|
D|----------16-16p15p14-16-16p15p14-------------16-|
A|----------------------------------16-16p15p14----|
E|-------------------------------------------------|

e|-------------------------|
B|---------------------17--|
G|-------------16----------|
D|-----16----------14------|
A|---------14--------------|
E|-14----------------------|

e|-----17-------19-------21-------------|
B|---------------------------19~--(19)\-|
G|-14------/16------/18-----------------|
D|--------------------------------------|
A|--------------------------------------|
E|--------------------------------------|

End Solo


3. 44 Minutes (Tabbed by Electric Eye)


Tuning: Standard

Intro
Guitar 1
e|--------------------------|
B|--------------------------|
G|--------------------------|
D|------5--/9--7~-----------|
A|-/7~-------------9-(9)\-2-|
E|--------------------------|

e|---------------------|
B|---------------------|
G|---------------------|
D|-----2--/5--4~-------|
A|-3~-------------5--2-|
E|---------------------|

e|----------------------|
B|----------------------|
G|----------------------|
D|------5--/9--7~-----9-|
A|-/7~-------------9----|
E|----------------------|

e|-----------------|
B|-----------------|
G|-----------------|
D|-9h10--9--7--9~--|
A|-----------------|
E|-----------------|

Guitar 2
e|-----------------------|
B|-----------------------|
G|---9~----/12-11~--9----|
D|-9-------------------9-|
A|-----------------------|
E|-----------------------|

e|---------------------|
B|---------------------|
G|-9~--------7~-----7--|
D|---------------9-----|
A|---------------------|
E|---------------------|

e|----------------------------------------|
B|----------------------------------------|
G|-9~----/12-11~------/14-12------/17-16~-|
D|----------------12----------12----------|
A|----------------------------------------|
E|----------------------------------------|

Guitar 3
e|------------------------------|
B|------------------------------|
G|-9-9-9-9-9---------9-9-9-9-9--|
D|-9-9-9-9-9---------9-9-9-9-9--|
A|-7-7-7-7-7---------7-7-7-7-7--|
E|------------------------------|

e|------------------------------|
B|------------------------------|
G|-9-9-9-9-9---------9-9-9-9-9--|
D|-9-9-9-9-9---------9-9-9-9-9--|
A|-7-7-7-7-7---------7-7-7-7-7--|
E|------------------------------|


Lead into verse:
Guitar 1
e|-------------------------------------|
B|-------------------------------------|
G|-9-9-9-9-9----9-10--9-9-9-9-9----9-5-|
D|-9-9-9-9-9----9-10--9-9-9-9-9----9-5-|
A|-7-7-7-7-7----7--8--7-7-7-7-7----7-3-|
E|-------------------------------------|

Guitar 2
e|------------------------------------|
B|------------------------------------|
G|------------------------------------|
D|----------------3-------------------|
A|-2-2-2-2-2------3--2-2-2-2-2------3-|
E|-0-0-0-0-0----0-1--0-0-0-0-0----0-3-|


Riff 1
e|------------------------------------|
B|------------------------------------|
G|------------------------------------|
D|----------------3-----------------5-|
A|-2-2-2-2-2------3--2-2-2-2-2------5-|
E|-0-0-0-0-0----0-1--0-0-0-0-0----0-3-|

e|------------------------------------|
B|------------------------------------|
G|------------------------------------|
D|----------------3-------------------|
A|-2-2-2-2-2------3--2-2-2-2-2------5-|
E|-0-0-0-0-0----0-1--0-0-0-0-0----0-5-|

e|------------------------------------|
B|------------------------------------|
G|------------------------------------|
D|----------------3-----------------5-|
A|-2-2-2-2-2------3--2-2-2-2-2------5-|
E|-0-0-0-0-0----0-1--0-0-0-0-0----0-3-|

e|------------------------------------|
B|------------------------------------|
G|------------------------------------|
D|----------------3-------------------|
A|-2-2-2-2-2------3--2-2-2-2-2------3-|
E|-0-0-0-0-0----0-1--0-0-0-0-0----0-3-|


Riff 2
Guitar 1
e|--------------------------------------|
B|--------------------------------------|
G|-9-9-9-9-9----9-10--9-9-9-9-9----9-12-|
D|-9-9-9-9-9----9-10--9-9-9-9-9----9-12-|
A|-7-7-7-7-7----7--8--7-7-7-7-7----7-10-|
E|--------------------------------------|

e|-------------------------------------|
B|-------------------------------------|
G|-9-9-9-9-9----9-10--9-9-9-9-9----9-7-|
D|-9-9-9-9-9----9-10--9-9-9-9-9----9-7-|
A|-7-7-7-7-7----7--8--7-7-7-7-7----7-5-|
E|-------------------------------------|

e|--------------------------------------|
B|--------------------------------------|
G|-9-9-9-9-9----9-10--9-9-9-9-9----9-12-|
D|-9-9-9-9-9----9-10--9-9-9-9-9----9-12-|
A|-7-7-7-7-7----7--8--7-7-7-7-7----7-10-|
E|--------------------------------------|

e|----------------------------------------|
B|----------------------------------------|
G|-9-9-9-9-9----9-10--9-9-9-9-9-----------|
D|-9-9-9-9-9----9-10--9-9-9-9-9-----------|
A|-7-7-7-7-7----7--8--7-7-7-7-7-----------|
E|-------------------------------X\-X\-X\-|

Guitar 2
e|------------------------------------|
B|------------------------------------|
G|------------------------------------|
D|----------------3-----------------5-|
A|-2-2-2-2-2------3--2-2-2-2-2------5-|
E|-0-0-0-0-0----0-1--0-0-0-0-0----0-3-|

e|------------------------------------|
B|------------------------------------|
G|------------------------------------|
D|----------------3-------------------|
A|-2-2-2-2-2------3--2-2-2-2-2------5-|
E|-0-0-0-0-0----0-1--0-0-0-0-0----0-5-|

e|------------------------------------|
B|------------------------------------|
G|------------------------------------|
D|----------------3-----------------5-|
A|-2-2-2-2-2------3--2-2-2-2-2------5-|
E|-0-0-0-0-0----0-1--0-0-0-0-0----0-3-|

e|---------------------------------------|
B|---------------------------------------|
G|---------------------------------------|
D|----------------3----------------------|
A|-2-2-2-2-2------3--2-2-2-2-2-----------|
E|-0-0-0-0-0----0-1--0-0-0-0-0--X\-X\-X\-|


Riff 3
Guitar 1
e|--------------------------|
B|--------------------------|
G|--------------------------|
D|--------------------------|
A|-2----5----5-----7--5--5--|
E|-0----2----3-----5--3--2--|

e|--------------------------------|
B|--------------------------------|
G|--------------------------------|
D|--------------------------------|
A|-2----5----5----9-9-9-9-9-9-9-9-|
E|-0----2----3----7-7-7-7-7-7-7-7-|
                  * * * * * * * *
e|--------------------------|
B|--------------------------|
G|--------------------------|
D|--------------------------|
A|-2----5----5-----7--5--5--|
E|-0----2----3-----5--3--2--|

e|---------------------------------|
B|---------------------------------|
G|---------------------------------|
D|---------------------------------|
A|-2----5----5----9-9-9-9-9-9-9-9\-|
E|-0----2----3----7-7-7-7-7-7-7-7\-|
                  * * * * * * *

Guitar 2
e|--------------------------|
B|--------------------------|
G|--------------------------|
D|------5--/9--7~-----------|
A|-/7~-------------9-(9)\-2-|
E|--------------------------|

e|---------------------|
B|---------------------|
G|---------------------|
D|-----2--/5--4~-------|
A|-3~-------------5--2-|
E|---------------------|

e|----------------------|
B|----------------------|
G|----------------------|
D|------5--/9--7~-----9-|
A|-/7~-------------9----|
E|----------------------|

e|-----------------|
B|-----------------|
G|-----------------|
D|-9h10--9--7--9~--|
A|-----------------|
E|-----------------|

Guitar 3 (Comes in the 2nd time)
e|-----------------------|
B|-----------------------|
G|---9~----/12-11~--9----|
D|-9-------------------9-|
A|-----------------------|
E|-----------------------|

e|---------------------|
B|---------------------|
G|-9~--------7~-----7--|
D|---------------9-----|
A|---------------------|
E|---------------------|

e|----------------------------------------|
B|----------------------------------------|
G|-9~----/12-11~------/14-12------/17-16~-|
D|----------------12----------12----------|
A|----------------------------------------|
E|----------------------------------------|


Riff 4 (Solo Rhythm)
Guitar 1
e|--------------------------------------|
B|--------------------------------------|
G|-9-9-9-9-9----9-10--9-9-9-9-9----9-12-|
D|-9-9-9-9-9----9-10--9-9-9-9-9----9-12-|
A|-7-7-7-7-7----7--8--7-7-7-7-7----7-10-|
E|--------------------------------------|

e|-------------------------------|
B|-------------------------------|
G|-9-9-9-9-9----9-10--9-9-9-9-9--|
D|-9-9-9-9-9----9-10--9-9-9-9-9--|
A|-7-7-7-7-7----7--8--7-7-7-7-7--|
E|-------------------------------|

Guitar 2
e|------------------------------------|
B|------------------------------------|
G|------------------------------------|
D|----------------3-----------------5-|
A|-2-2-2-2-2------3--2-2-2-2-2------5-|
E|-0-0-0-0-0----0-1--0-0-0-0-0----0-3-|

e|------------------------------|
B|------------------------------|
G|------------------------------|
D|----------------3-------------|
A|-2-2-2-2-2------3--2-2-2-2-2--|
E|-0-0-0-0-0----0-1--0-0-0-0-0--|


Solo (Broderick)
e|-20p17h19h20p19p17p16-19p16h17t22p19p17-19/22--20--19-|
B|------------------------------------------------------|
G|------------------------------------------------------|
D|------------------------------------------------------|
A|------------------------------------------------------|
E|------------------------------------------------------|

e|-17p13h16h17p16p13\12-16p12h13h16t19p16p12-16/19--17--16-|
B|---------------------------------------------------------|
G|---------------------------------------------------------|
D|---------------------------------------------------------|
A|---------------------------------------------------------|
E|---------------------------------------------------------|

e|-16p13p12----13p12---------------------------|
B|----------16-------16-12-12b13-12~-----------|
G|------------------------------------14b16r14-|
D|---------------------------------------------|
A|---------------------------------------------|
E|---------------------------------------------|

e|-------------------------|
B|-------------------------|
G|-13----------------------|
D|----14-15-12-14----12----|
A|----------------15----14-|
E|-------------------------|
    *  *  *  *  *  *  *  *
e|-----------------------|
B|-----------------------|
G|-13--------------------|
D|----14-----------------|
A|-------14-11-----------|
E|--------------12[dive]-|
    *  *  *  *

End Solo


Play Riff 1
Play Riff 2
Play Riff 3


Riff 5 (Solo Rhythm)
e|-------------------------------|
B|-------------------------------|
G|-------------------------------|
D|-----2-----0-2------5-----2-5--|
A|-----2-----0-2------5-----2-5--|
E|-0-0---0-0------0-0---0-0------|
   * *   * *      * *   * *
e|---------------------------------|
B|---------------------------------|
G|---------------------------------|
D|-----7-----5-7------10-----9-7-9-|
A|-----7-----5-7------10-----9-7-9-|
E|-0-0---0-0------0-0----0-0-------|
   * *   * *      * *    * *

Final time:
e|----------------------------------|
B|----------------------------------|
G|----------------------------------|
D|-----7-----5-7--10-10-10-10-9-7-9-|
A|-----7-----5-7--10-10-10-10-9-7-9-|
E|-0-0---0-0------------------------|
   * *   * *


Solo (Broderick)
e|-------------------------------------|
B|-------------------------------------|
G|-9-4h9p4-------------------7-9-7---7-|
D|---------7-------5-7/9-7-9-------9---|
A|-----------7-5-7---------------------|
E|-------------------------------------|

e|----------------------------12-14p12----12/14-|
B|------------7---7-8-8/12-13----------13-------|
G|----------9---9-------------------------------|
D|-/10-9-10-------------------------------------|
A|----------------------------------------------|
E|----------------------------------------------|

e|-15h19p15p14----14h19t20p19p15-14h15----------|
B|-------------17----------------------17~----0-|
G|----------------------------------------------|
D|----------------------------------------------|
A|----------------------------------------------|
E|----------------------------------------------|

e|----------------------------------------------|
B|-12\8-7h8p7-0-7b8~--/15\12-10h12p10----12b13~-|
G|------------------------------------11--------|
D|----------------------------------------------|
A|----------------------------------------------|
E|----------------------------------------------|

e|-------14----------15p14----14-19-15-19----19-15----19---|
B|----15----15----15-------15-------------15-------15----0-|
G|-17----------17------------------------------------------|
D|---------------------------------------------------------|
A|---------------------------------------------------------|
E|---------------------------------------------------------|

e|-14h15h17p15p14------------|
B|----------------17-13-12~--|
G|---------------------------|
D|---------------------------|
A|---------------------------|
E|---------------------------|

e|-14-------14-(14)b15~-----/19-15-------------------|
B|----15---------------------------17-19-20p19h20-17-|
G|-------16--------------0---------------------------|
D|---------------------------------------------------|
A|---------------------------------------------------|
E|---------------------------------------------------|

e|-------------------------------------------|
B|-19-15-17----15----------------------------|
G|----------17----16-14-16b17r16b17r16b17r16-|
D|-------------------------------------------|
A|-------------------------------------------|
E|-------------------------------------------|

e|--------------------------------------------|
B|-12b13r12b13--{t18}p12-(13)r12--t17-x-------|
G|------------------------------------x-9/12~-|
D|--------------------------------------------|
A|--------------------------------------------|
E|--------------------------------------------|

e|-15----15\14----14\10---10/12---12\8---8/10---|
B|----12-------10-------7-------8------5------7-|
G|----------------------------------------------|
D|----------------------------------------------|
A|----------------------------------------------|
E|----------------------------------------------|

e|-10\7---7/8-0-7-0-7-0-8-0-7-0-7-0-|
B|------3---------------------------|
G|----------------------------------|
D|----------------------------------|
A|----------------------------------|
E|----------------------------------|

e|-12p8-----------------8/-14p11-------------------10-|
B|-----10-------------10--------12---------------12---|
G|-------9-----------9------------11-----------11-----|
D|--------10-------10---------------13-------13-------|
A|----------12-7h12-------------------14-9h14---------|
E|----------------------------------------------------|

e|-10--(10)dive--(10)dive-|
B|------------------------|
G|------------------------|
D|------------------------|
A|------------------------|
E|------------------------|

End Solo


Riff 6 (Solo Rhythm)
e|---------------------------------|
B|---------------------------------|
G|---------------------------------|
D|-1---0-0-000-000-1---0---0-1-0-3-|
A|-1---0-0-000-000-1---0---0-1-0-3-|
E|---0---------------0---0---------|
     *   * *** ***   *   * * * *
e|---------------------------------|
B|---------------------------------|
G|---------------------------------|
D|-1---0-0-000-000-1---0-0-3--3--3-|
A|-1---0-0-000-000-1---0-0-3--3--3-|
E|---0---------------0-------------|
     *   * *** ***   *   *
e|---------------------------------|
B|---------------------------------|
G|---------------------------------|
D|-1---0-0-000-000-1---0---0-1-0-3-|
A|-1---0-0-000-000-1---0---0-1-0-3-|
E|---0---------------0---0---------|
     *   * *** ***   *   * * * *
e|---------------------------------|
B|---------------------------------|
G|---------------------------------|
D|-1---0-0-000-000-1---0-0-3--2--5-|
A|-1---0-0-000-000-1---0-0-3--2--5-|
E|---0---------------0-------------|
     *   * *** ***   *   *


Solo (Mustaine)
e|-14p10----------10-14p10----------10-14p10----10-|
B|-------13-10h13----------13-10h13----------13----|
G|-------------------------------------------------|
D|-------------------------------------------------|
A|-------------------------------------------------|
E|-------------------------------------------------|

e|-17p10----------10-17p10----------10-17p10----10-|
B|-------13-10h13----------13-10h13----------13----|
G|-------------------------------------------------|
D|-------------------------------------------------|
A|-------------------------------------------------|
E|-------------------------------------------------|

e|-16p10----------10-16p10----------10-16p10----10-|
B|-------13-10h13----------13-10h13----------13----|
G|-------------------------------------------------|
D|-------------------------------------------------|
A|-------------------------------------------------|
E|-------------------------------------------------|

e|-15p10----------10-15p10----------10-15p10----10-|
B|-------13-10h13----------13-10h13----------13----|
G|-------------------------------------------------|
D|-------------------------------------------------|
A|-------------------------------------------------|
E|-------------------------------------------------|

e|-11tm--10tm-----------------------------------------|
B|-------------13tm--11tm--10tr11--8tr10--7tr8--------|
G|----------------------------------------------8tr10-|
D|----------------------------------------------------|
A|----------------------------------------------------|
E|----------------------------------------------------|

e|--------------------------------------|
B|---------------------7h8p7---7-8-10-8-|
G|-7h8p7-----------7-8-------8----------|
D|-------10-8p7-------------------------|
A|--------------10----------------------|
E|--------------------------------------|

e|-6-------------------------------------|
B|---10-8-7-10-8-7---8-7-----7-----------|
G|-----------------8-----8-7---8-7----9~-|
D|---------------------------------10----|
A|---------------------------------------|
E|---------------------------------------|

End Solo


Riff 7 (Solo Rhythm)
e|---------------------------------|
B|---------------------------------|
G|---------------------------------|
D|-3---2-2-222-222-3---2---2-3-2-5-|
A|-3---2-2-222-222-3---2---2-3-2-5-|
E|---0---------------0---0---------|
     *   * *** ***   *   * * * *
e|---------------------------------|
B|---------------------------------|
G|---------------------------------|
D|-3---2-2-222-222-3---2-2-5--5--5-|
A|-3---2-2-222-222-3---2-2-5--5--5-|
E|---0---------------0-------------|
     *   * *** ***   *   *
e|---------------------------------|
B|---------------------------------|
G|---------------------------------|
D|-3---2-2-222-222-3---2---2-3-2-5-|
A|-3---2-2-222-222-3---2---2-3-2-5-|
E|---0---------------0---0---------|
     *   * *** ***   *   * * * *
Guitar 1
e|-----------------------------------|
B|-----------------------------------|
G|-----------------------------------|
D|-3---2-2-222-222-5--------7--5--10-|
A|-3---2-2-222-222----5--4--5--3---8-|
E|---0----------------3--2-----------|
     *   * *** *** *  *  *
Guitar 2
e|-----------------------------------|
B|-----------------------------------|
G|-----------------------------------|
D|-3---2-2-222-222-5--------7--5--7--|
A|-3---2-2-222-222----5--4-----------|
E|---0----------------3--2-----------|
     *   * *** *** *  *  *


Solo (Broderick)
e|-------------------------------------------------|
B|-------------------------------------------------|
G|-------------12----------------------14----------|
D|-14-------------14-------14-------------15-14-12-|
A|----15-14-12-------15-12----15-14-12-------------|
E|-------------------------------------------------|
    *  *  *  *  *  *  *  *  *  *  *  *  *  *  *  *
e|-------------------------13-12-------------------|
B|-------------15----------------15----------------|
G|-13-------13----13----------------13-------13----|
D|----14-15----------15-14-------------14-15----14-|
A|-------------------------------------------------|
E|-------------------------------------------------|
    *  *  *  *  *  *  *  *              *  *  *  *
e|----------------------------------------------------|
B|----------------------------------------12----------|
G|-------------------------------------13----13-------|
D|-14-15-12-14----12----------------14----------14----|
A|-------------15----14-15-12----14----------------14-|
E|----------------------------16----------------------|
    *  *  *  *  *  *  *  *  *  *  *  *  *
e|-----------------------------13----------------13----|
B|-18p13------13-17p13------13----15-17-13-15-17----15-|
G|------14--14--------14--14---------------------------|
D|--------14------------14-----------------------------|
A|-----------------------------------------------------|
E|-----------------------------------------------------|

e|-17p13----------13-16~----17-13-16-|
B|-------15----15--------------------|
G|----------14-----------------------|
D|-----------------------------------|
A|-----------------------------------|
E|-----------------------------------|

e|-12-13-------12-----------------------------------|
B|-------15h17----15b17r15--13-12-13----12----------|
G|-----------------------------------14----14b16r14-|
D|--------------------------------------------------|
A|--------------------------------------------------|
E|--------------------------------------------------|

e|---------------|
B|---------------|
G|-13----13------|
D|----15----14~--|
A|---------------|
E|---------------|

e|------------------------------------------10-12/-|
B|---------------------------------10-12-13--------|
G|---------9---------------9-11-13-----------------|
D|-9-10-12---12-10-9-10-12-------------------------|
A|-------------------------------------------------|
E|-------------------------------------------------|

e|-19p16--------16-19/24~--|
B|-------17--17------------|
G|-------------------------|
D|-------------------------|
A|-------------------------|
E|-------------------------|

End Solo


Play Riff 3


Riff 8
e|------------------------------------------|
B|------------------------------------------|
G|------------------------------------------|
D|-------------------3--------------------5-|
A|-5h7-----5h7-------3--5h7-----5h7-------5-|
E|-----000-----000-0-1------000-----000-0-3-|
       ***     ***          ***     ***
e|------------------------------------------|
B|------------------------------------------|
G|------------------------------------------|
D|-------------------3----------------------|
A|-5h7-----5h7-------3--5h7-----5h7-------5-|
E|-----000-----000-0-1------000-----000-0-5-|
       ***     ***          ***     ***

Guitar 1
e|------------------------------------------|
B|------------------------------------------|
G|------------------------------------------|
D|-------------------3--------------------5-|
A|-5h7-----5h7-------3--5h7-----5h7-------5-|
E|-----000-----000-0-1------000-----000-0-3-|
       ***     ***          ***     ***
e|--------------------------------------------------|
B|--------------------------------------------------|
G|--------------------------------------------------|
D|-----------------------3--------------------------|
A|-12h14-----12h14-------3--12h14-----12h14-------3-|
E|-------000-------000-0-1--------000-------000-0-3-|
         ***       ***            ***       ***
Guitar 2
e|----------------------------------------------|
B|----------------------------------------------|
G|----------------------------------------------|
D|---------------------3----------------------5-|
A|-9h10-----9h10-------3--9h10-----9h10-------5-|
E|------000------000-0-1-------000------000-0-3-|
        ***      ***           ***      ***
e|--------------------------------------------------|
B|--------------------------------------------------|
G|--------------------------------------------------|
D|-12h14-----12h14-------3--12h14-----12h14---------|
A|-----------------------3------------------------3-|
E|-------000-------000-0-1--------000-------000-0-3-|
         ***       ***            ***       ***


Riff 9 (Solo Rhythm)
e|---------------------------------------------|
B|---------------------------------------------|
G|---------------------------------------------|
D|---------------------------------------------|
A|-5h7------5h7----------5h7------5h7----------|
E|-----0000-----00000000-----0000-----00000000-|
       ****     ********     ****     ********
e|---------------------------------------------|
B|---------------------------------------------|
G|---------------------------------------------|
D|---------------------------------------------|
A|-5h7------5h7----------5h7------5h7------10--|
E|-----0000-----00000000-----0000-----0000--8--|
       ****     ********     ****     ****
Guitar 1
e|---------------------------------------------|
B|---------------------------------------------|
G|---------------------------------------------|
D|---------------------------------------------|
A|-5h7------5h7----------5h7------5h7----------|
E|-----0000-----00000000-----0000-----00000000-|
       ****     ********     ****     ********
e|-----------------------|
B|-----------------------|
G|-----------------------|
D|-----------------------|
A|-5h7------5h7----------|
E|-----0000-----00000000-|
       ****     ********
Guitar 2
e|-------------------------------------------------|
B|-------------------------------------------------|
G|-------------------------------------------------|
D|-------------------------------------------------|
A|-9h10------9h10----------9h10------9h10----------|
E|------0000------00000000------0000------00000000-|
        ****      ********      ****      ********
e|-------------------------|
B|-------------------------|
G|-------------------------|
D|-------------------------|
A|-9h10------9h10----------|
E|------0000------00000000-|
        ****      ********

Both guitars:
e|-----------------------------------------|
B|-----------------------------------------|
G|-----------------------------------------|
D|-----------------------------------------|
A|-----------------------------------------|
E|-15-0-12-0-17-0-14-0-19-0-15-0-20-0-19-0-|
    * *  * *  * *  * *  * *  * *  * *  * *

Guitar 1
e|-------------------------------|
B|-------------------------------|
G|-9-9-9-9-9----9-10-------------|
D|-9-9-9-9-9----9-10-------------|
A|-7-7-7-7-7----7--8--2-2-2-2-2--|
E|--------------------0-0-0-0-0--|

Guitar 2
e|------------------------------|
B|------------------------------|
G|------------------------------|
D|----------------3-------------|
A|-2-2-2-2-2------3--2-2-2-2-2--|
E|-0-0-0-0-0----0-1--0-0-0-0-0--|


Solo (Broderick)
e|-12p7-------7-12p7-12-10-8----------------------|
B|------8---8----------------12-10-8--------------|
G|--------9--------------------------11-9---------|
D|----------------------------------------10-9----|
A|---------------------------------------------10-|
E|------------------------------------------------|

e|-12p7-------7h8h10p8/-15-14-12-------------------------------------|
B|------8---8--------------------15-13-12----------------------------|
G|--------9-------------------------------14-12-11-------------------|
D|-------------------------------------------------14-12-10----------|
A|----------------------------------------------------------14-12-10-|
E|-------------------------------------------------------------------|

e|-12p8---------8-12p8-12-10-8-----------------------|
B|------10---10----------------12-10-8---------------|
G|---------9---------------------------11-9-7--------|
D|--------------------------------------------10-9-7-|
A|---------------------------------------------------|
E|---------------------------------------------------|

e|-12p8-----8h10h12p10/-17-15-14-------------------------------------|
B|-----10-10---------------------17-15-13----------------------------|
G|-------9--------------------------------16-14-12-------------------|
D|-------------------------------------------------16-14-12----------|
A|----------------------------------------------------------15-14-12-|
E|-------------------------------------------------------------------|

e|-14p10---------10-14p10-15-14-12----------------------------|
B|-------12----12------------------15-13-12-------------------|
G|----------11------------------------------14-12-11----------|
D|---------------------------------------------------14-12-10-|
A|------------------------------------------------------------|
E|------------------------------------------------------------|

e|-14p10------10h12h14-12/14h17t19p17p15p14-|
B|------12--12------------------------------|
G|--------11--------------------------------|
D|------------------------------------------|
A|------------------------------------------|
E|------------------------------------------|

e|-------------------------------------|
B|-17-15-13----------------------------|
G|----------16-14-12-------------------|
D|-------------------16-14-12----------|
A|----------------------------15-14-12-|
E|-------------------------------------|

e|-17p12----------12-17p12-15-14-12----------------------------|
B|-------13----13-------------------15-13-12-------------------|
G|----------14-------------------------------14-12-11----------|
D|----------------------------------------------------14-12-10-|
A|-------------------------------------------------------------|
E|-------------------------------------------------------------|

e|-19p14--------------------14h15h17p15p14-|
B|------15----------------15---------------|
G|--------16------------16-----------------|
D|----------16--------16-------------------|
A|------------18-14h18---------------------|
E|-----------------------------------------|

e|---------------------------------------|
B|-17-15-13------------------------------|
G|----------16-14-12---------------------|
D|-------------------16-14-12----12-14~--|
A|----------------------------14---------|
E|---------------------------------------|

End Solo


4. 1320 (Tabbed by Big Bozz)


Riff 1
e|--------------------------------------|
B|--------------------------------------|
G|--------------------------------------|
D|-7--7-----5-8p7p5---5h7---------------|
A|-0--0-6h7---------7------000000000000-|
E|--------------------------------------|
                           ************
e|--------------------------------------|
B|--------------------------------------|
G|--------------------------------------|
D|-7--7-----5-8p7p5---5h7---------------|
A|-0--0-6h7---------7------000000000000-|
E|--------------------------------------|
                           ************
e|---------------------------------------------|
B|---------------------------------------------|
G|-------------------------------5-8p7p5-------|
D|-7--7-----5-8p7p5---5h7----------------7-5h7-|
A|-0--0-6h7---------7------0-6h7---------------|
E|---------------------------------------------|

e|-----------------------------------|
B|-----------------------------------|
G|-----------------------------------|
D|-------5-8p7p5---5h7---------------|
A|-0-6h7---------7------000000000000-|
E|-----------------------------------|
                        ************

Riff 1a
e|--------------------------------------|
B|--------------------------------------|
G|--------------------------------------|
D|-7--7-----5-8p7p5---5h7---------------|
A|-0--0-6h7---------7------000000000000-|
E|--------------------------------------|
                           ************
e|--------------------------------------|
B|--------------------------------------|
G|--------------------------------------|
D|-7--7-----5-8p7p5---5h7---------------|
A|-0--0-6h7---------7------000000000000-|
E|--------------------------------------|
                           ************

1st ending
e|---------------------------------------------|
B|---------------------------------------------|
G|---------------------------------8p7p5-------|
D|-7--7-----5-8p7p5---5h7--------5-------7-5h7-|
A|-0--0-6h7---------7------0-6h7---------------|
E|---------------------------------------------|

e|-----------------------------------|
B|-----------------------------------|
G|-----------------------------------|
D|-------5-8p7p5---5h7---------------|
A|-0-6h7---------7------000000000000-|
E|-----------------------------------|
                        ************

2nd ending:
e|-----------------------------------------|
B|-----------------------------------------|
G|---------------------------------8p7p5---|
D|-7--7-----5-8p7p5---5h7--------5-------7-|
A|-0--0-6h7---------7------0-6h7-----------|
E|-----------------------------------------|

e|-----------------------------------|
B|-----------------------------------|
G|----------5----------------5-------|
D|-7--7-----5-3-5-3-7--7-----5-------|
A|-0--0-6h7---1-3-1-0--0-6h7---3-5-3-|
E|-----------------------------1-3-1-|


Riff 2
e|--------------------------------|
B|--------------------------------|
G|--------------------------------|
D|--------------------------------|
A|-7--------7-5-7-8--------10-9-8-|
E|-5--5-5-5-5-3-5-6--6-6-6--8-7-6-|
      * * *          * * *

Riff 3
e|------------------------------------|
B|------------------------------------|
G|------------------2b3-----4-1-----2-|
D|------2h4-2h4---------4-2-----3-----|
A|--------------------------------4---|
E|-2--2---------2-2-------------------|
      *         * *


Riff 4
e|-----------------------------|
B|-----------------------------|
G|-----------------------------|
D|-2---------------------------|
A|-0--0-0-0-0-0-0-2-3-2-0-2----|
E|--------------------------3~-|
      * * * * * *
e|-------------------------------------|
B|-------------------------------------|
G|-------------------------------------|
D|-----2h4-2h4-------------------------|
A|-----------------------4-5-----7p6-7-|
E|-2-2---------2-2-2-2-2-----2-2-------|
   * *         * * * * *     * *

1st ending:
e|--------------------------------|
B|--------------------------------|
G|--------------------------------|
D|-2------------------------------|
A|-0--0-0-0-0-0-0-2-3-2-0-2-----5-|
E|---------------------------0--3-|
      * * * * * *
e|-------------------------------------|
B|-------------------------------------|
G|-------------------------------------|
D|-----2h4-2h4-------------------------|
A|-----------------------4-5-----7p6-7-|
E|-2-2---------2-2-2-2-2-----2-2-------|
   * *         * * * * *     * *

2nd ending:
e|----------------------------------|
B|----------------------------------|
G|----------------------------------|
D|-2--------------------------------|
A|-0--0-0-0-0-0-0-2--3--2p0-2-----5-|
E|-----------------------------0--3-|
      * * * * * *


Riff 5
NOTE: Guitars play accidental differences, only one
worth noting is in ().  Right guitar plays note in ()
left guitar slides from A note.
e|-----------------------------------|
B|-----------------------------------|
G|-----------------------------------|
D|---4-4--4h5p4------5-5---5h7p5p4-5-|
A|-4------------4-5------------------|
E|-2------------2-3------0-----------|
                         *
e|--------------------------------------|
B|--------------------------------------|
G|--------7b8r7-------------------------|
D|----5-7-7b8r7-(5)----9-9---9h10p9p7-9-|
A|-7----------------9-------------------|
E|-5-------------5/-7------7------------|
                           *


Play Riff 1a  with just the 2nd ending   Solo Rhythm


Solo (Broderick)
e|-17p12----12-15p12-15p12----12-17p12--17p12----|
B|-------13----------------13-----------------13-|
G|-----------------------------------------------|
D|-----------------------------------------------|
A|-----------------------------------------------|
E|-----------------------------------------------|

e|-12-13-15-13p12----------------12-13-15p13p12-|
B|----------------15-13-12h13h15----------------|
G|----------------------------------------------|
D|----------------------------------------------|
A|----------------------------------------------|
E|----------------------------------------------|

e|----------------12-13-15p13p12-|
B|-------------------------------|
G|-14-12-10h12h14----------------|
D|-------------------------------|
A|-------------------------------|
E|-------------------------------|

e|------------------------------|
B|------------------------------|
G|-12-10-9h10h12-10-10p9--------|
D|-----------------------10-7~--|
A|------------------------------|
E|------------------------------|

e|-------------------------|
B|----------12-13--13-12~)-| <-- Harmony guitar plays top notes
G|-(9-10/12-12-14----------|
D|-10-12/14--------14-12~--|
A|-------------------------|
E|-------------------------|

e|----------------12----15b17~--|
B|----13----15-13----15---------|
G|-14----14---------------------|
D|------------------------------|
A|------------------------------|
E|------------------------------|

Guitar 1
e|----------------------------------------------------|
B|---------------------------------------------13-----|
G|-----------7----7/9-12-----------12----12h14----14~-|
D|-/7~----10---10--------10/12--14----14--------------|
A|----------------------------------------------------|
E|----------------------------------------------------|

Guitar 2
e|------------------------------------------------------|
B|-----------------------------------------------17-----|
G|----------------------16-----------16----16h17----17~-|
D|-------14-15-14-15/17----14/15--17----17--------------|
A|-/15~-------------------------------------------------|
E|------------------------------------------------------|

End Solo


Play Riff 2
Play Riff 3
Play Riff 4  with this ending:
e|-------------------------------------|
B|-------------------------------------|
G|-------------------------------------|
D|-2-----------------------------------|
A|-0--0-0-0-0-0-0-2--3--2p0-2-----5-4\-|
E|-----------------------------0--3-2\-|
      * * * * * *


NOTE:  Solos are listed afterwards.

Riff 6 (Solo Rhythm)        x4
e|---------------------------|
B|---------------------------|
G|----------------4^---------|
D|-6----4----6----4^----6--4-|
A|-6----4----6----------6--4-|
E|----0----0----0-----0------|
      *    *    *     *

Riff 7 (Solo Rhythm)        x3
e|---------------------------|
B|---------------------------|
G|---------------------------|
D|-4----2--------------------|
A|-----------4----3----2p0---|
E|----0----0----0----0-----2-|
      *    *    *    *
e|--------------------------|
B|--------------------------|
G|--------------------------|
D|-4----2--------------4--5-|
A|-----------4----3----4--5-|
E|----0----0----0----0------|
      *    *    *    *

Keep alternating the above two riffs, then finally
end with:

Riff 7a (Solo Rhythm)       x7
e|---------------------------|
B|---------------------------|
G|---------------------------|
D|-4----2--------------------|
A|-----------4----3----2p0---|
E|----0----0----0----0-----2-|
      *    *    *    *
e|--------------------|
B|--------------------|
G|--------------------|
D|-------2-------4----|
A|-4--2--0--4--2-2-4--|
E|-2--0-----2--0---2--|


End Rhythm.


Solo (Mustaine)
e|-----4----------4---------4-----------|
B|-------7p4-7b9----7p4-------7p4-7b9~--|
G|-6b8------------------6b8-------------|
D|--------------------------------------|
A|--------------------------------------|
E|--------------------------------------|

e|-----4-----------------------|
B|---4---7p4---4---------------|
G|-6---------6---7p6p4---6-4~--|
D|---------------------6-------|
A|-----------------------------|
E|-----------------------------|

e|-4-7p6p4-6p4---------------------------|
B|-------------7-7p6p4-6p4h6-7p6p4-6p4---|
G|-------------------------------------6-|
D|---------------------------------------|
A|---------------------------------------|
E|---------------------------------------|

e|-------------------------------------------|
B|-------------------------------------------|
G|-6p5p4-5p4h6-6p5p4-5p4---------------------|
D|-----------------------6-6p5p4-6p5p4-6p5p4-|
A|-------------------------------------------|
E|-------------------------------------------|

e|---------------------|
B|---------------------|
G|---------------------|
D|-5p4-----------------|
A|-----6-6p5p4-5p4-----|
E|-----------------4-2-|

End Solo


Solo (Broderick)
e|-------------------14p9----9-14p9-------------|
B|-14p10----10-14p10------10--------14p10----10-|
G|-------11-------------------------------11----|
D|----------------------------------------------|
A|----------------------------------------------|
E|----------------------------------------------|

e|-------------------15p10-14/15\14p10-15p10----------------|
B|-15p12----12-15p12-------------------------12-15p12----12-|
G|-------12-------------------------------------------12----|
D|----------------------------------------------------------|
A|----------------------------------------------------------|
E|----------------------------------------------------------|

e|-------------------14p11----11-14p11-------------|
B|-16p13----13-16p13-------13----------16p13----13-|
G|-------14----------------------------------14----|
D|-------------------------------------------------|
A|-------------------------------------------------|
E|-------------------------------------------------|

e|--------------------------------------------21-|
B|-18p14----14-18p14/-21p18h19h21p19p18h21/23----|
G|-----------------------------------------------|
D|-------18--------------------------------------|
A|-----------------------------------------------|
E|-----------------------------------------------|

e|-------------------------19h22p21p19-----------|
B|-23\22p19-22p21p19-18/19-------------21p19-21\-|
G|-----------------------------------------------|
D|-----------------------------------------------|
A|-----------------------------------------------|
E|-----------------------------------------------|

End Solo


Solo (Mustaine)
e|-----------------------------------|
B|-----------------------------------|
G|-----------------------------------|
D|-----------------------------------|
A|-----------5h8p5-7h8p7p5-8-7p5-----|
E|-4h7-4h6h7---------------------7-4-|

e|--------------------------------------------|
B|--------------------------------------------|
G|--------------------------------------------|
D|--------------------------------------------|
A|-------------8h11p8-10h11p10p8-11-10p8------|
E|-7h10-7h9h10---------------------------10-7-|

e|--------------------------------------------------10h13p10-|
B|------------------------------9h12p9-9h12-9h11h12----------|
G|-----------7h10p7-7h10-7h9p10------------------------------|
D|-6h9-6h8h9-------------------------------------------------|
A|-----------------------------------------------------------|
E|-----------------------------------------------------------|

e|-11p8-----------14p11-----------------|
B|------10-7h10p7-------13-10h13p10-----|
G|----------------------------------11~-|
D|--------------------------------------|
A|--------------------------------------|
E|--------------------------------------|

End Solo


Solo (Broderick)
Guitar 1
e|-14h15p14----14-------14----17p14-15~----15----|
B|----------17----15-17----15-----------------17-|
G|-----------------------------------------------|
D|-----------------------------------------------|
A|-----------------------------------------------|
E|-----------------------------------------------|

e|-15\14----12h14p12----12----12\10----9h10p9-9----|
B|-------15----------14----14-------12----------10-|
G|-------------------------------------------------|
D|-------------------------------------------------|
A|-------------------------------------------------|
E|-------------------------------------------------|

e|-9\7-----9-7-9-7-9b11~--|
B|-----9-7----------------|
G|------------------------|
D|------------------------|
A|------------------------|
E|------------------------|

Guitar 2
e|-17h19p17----17-------17----20p17-19~----19----|
B|----------20----19-20----19-----------------20-|
G|-----------------------------------------------|
D|-----------------------------------------------|
A|-----------------------------------------------|
E|-----------------------------------------------|

e|-19\17----15h17p15----15----15\14----12h14p12-12----|
B|-------19----------17----17-------15-------------14-|
G|----------------------------------------------------|
D|----------------------------------------------------|
A|----------------------------------------------------|
E|----------------------------------------------------|

e|-12\10-------12-10-12-10-12b14~--|
B|-------12-10---------------------|
G|---------------------------------|
D|---------------------------------|
A|---------------------------------|
E|---------------------------------|


Back to one guitar:
e|-12-------------12-------------12-------|
B|----15p12-15b17----15p12----------15p12-|
G|-------------------------14b16----------|
D|----------------------------------------|
A|----------------------------------------|
E|----------------------------------------|

e|-14p12----12------------------------------|
B|-------15----15p12-15p12----12------------|
G|-------------------------15----15-13~---\-|
D|------------------------------------------|
A|------------------------------------------|
E|------------------------------------------|

End Solo


Solo (Mustaine)
e|-------------------------------|
B|-------------------------------|
G|-16h17-17----------------------|
D|----------18-18-18-16h18p16----|
A|----------------------------18-|
E|-------------------------------|

e|----------------------|
B|----------------------|
G|----------------------|
D|-16-------------------|
A|----18-17-16----16----|
E|-------------19----19-|

e|--------------------------------|
B|--------------------------------|
G|-16h17-17-----------------------|
D|-16(16-16)-18-18-18-16h18p16----|
A|-----------------------------18-|
E|--------------------------------|

e|----------------------|
B|----------------------|
G|----------16----18----|
D|-16-17-18----18----18-|
A|----------------------|
E|----------------------|

e|-------------------------------|
B|-------------------------------|
G|-16h17-17----------------------|
D|----------18-18-18-16h18p16----|
A|----------------------------18-|
E|-------------------------------|

e|----------------------|
B|----------------------|
G|----------------------|
D|-16-------------------|
A|----18-17-16----16----|
E|-------------19----19-|

e|-------------------------------|
B|-------------------------------|
G|-16h17-17----------16h18p16----|
D|----------18-18-18----------18-|
A|-------------------------------|
E|-------------------------------|

e|--------------------------------|
B|----------16h18p16----16-18-19~-|
G|-16-18-19----------19-----------|
D|--------------------------------|
A|--------------------------------|
E|--------------------------------|

End Solo


Solo (Broderick)
e|-17p14----14-17p14-17p14----14-17p14-|
B|-------17----------------17----------|
G|-------------------------------------|
D|-------------------------------------|
A|-------------------------------------|
E|-------------------------------------|

e|-19p14----14-19p14-19p14----14-19p14-|
B|-------17----------------17----------|
G|-------------------------------------|
D|-------------------------------------|
A|-------------------------------------|
E|-------------------------------------|

e|-20p14----14-20p14----14-20p14----14-|
B|-------17----------17----------17----|
G|-------------------------------------|
D|-------------------------------------|
A|-------------------------------------|
E|-------------------------------------|

e|-19p14----14-19p14-19p14----14-19-12-|
B|-------17----------------17----------|
G|-------------------------------------|
D|-------------------------------------|
A|-------------------------------------|
E|-------------------------------------|

e|-14-16p14p12----------------------------------|
B|-------------16p14p12-------------------------|
G|----------------------14p12-------13----------|
D|----------------------------14-14----16p14p13-|
A|----------------------------------------------|
E|----------------------------------------------|

e|----------------------------------|
B|----------------------------------|
G|----------------------------------|
D|----------------------------------|
A|-16p14p12-------------------------|
E|----------16p14p12-16p14p12-0-5~--|

Guitar 1
e|-/14p11---------------------------|
B|--------13----13------------------|
G|-----------14----14-13~----(13)\--|
D|----------------------------------|
A|----------------------------------|
E|----------------------------------|

Guitar 2
e|-------------------|
B|-------------------|
G|-11----11----11----|
D|----13----13----13-|
A|-------------------|
E|-------------------|

End Solo


Solo (Mustaine)
e|-21-21b23--(23)r21-21tm-|
B|------------------------|
G|------------------------|
D|------------------------|
A|------------------------|
E|------------------------|

e|-21p19p16-19p16----------------------|
B|----------------21-21p19p16-19p16h21-|
G|-------------------------------------|
D|-------------------------------------|
A|-------------------------------------|
E|-------------------------------------|

e|-------------------------------------|
B|-21p19p16-19p16----------------------|
G|----------------18-19p18p16-16h18h19-|
D|-------------------------------------|
A|-------------------------------------|
E|-------------------------------------|

e|-------------------------------------|
B|-------------------------------------|
G|-18p16----18p16----18p16----18p16----|
D|-------18-------18-------18-------18-|
A|-------------------------------------|
E|-------------------------------------|

e|-------------------------------------|
B|-------------------------------------|
G|-16----------------16----16-18p16h18-|
D|----18p16-18p16h18----18-------------|
A|-------------------------------------|
E|-------------------------------------|

e|-------16-19p16----------16-19p16----|
B|-16h19----------19-16h19----------19-|
G|-------------------------------------|
D|-------------------------------------|
A|-------------------------------------|
E|-------------------------------------|

e|-16-------------16-21p19p16-16h19h21-21-|
B|----19p16-16h19-------------------------|
G|----------------------------------------|
D|----------------------------------------|
A|----------------------------------------|
E|----------------------------------------|

End Solo


Solo (Broderick)
e|-------------------------------------------|
B|----------------------------------------17-|
G|----------------------18-20-21p20p18-18----|
D|----18-19-23p19p18-19----------------------|
A|-19----------------------------------------|
E|-------------------------------------------|

e|----------------16-|
B|-21-22p21p17-17----|
G|-------------------|
D|-------------------|
A|-------------------|
E|-------------------|

e|-17h20-21p17p16h17h21-t24p21p17p16----16-|
B|-----------------------------------19----|
G|-----------------------------------------|
D|-----------------------------------------|
A|-----------------------------------------|
E|-----------------------------------------|

e|-------------------------------------|
B|-19p18p17p16----16-------------------|
G|-------------18----------------------|
D|-------------------19p18p17p16h17h19-|
A|-------------------------------------|
E|-------------------------------------|

e|-------------------|
B|-16h17h18h19p18p17-|
G|-------------------|
D|-------------------|
A|-------------------|
E|-------------------|

e|-------------------------------------------------------------|
B|-13-16-19p16p13----------------16-19-22p19p16----------------|
G|-------------------------------------------------------------|
D|----------------19-16-14h16h19----------------22-19-17h19h22-|
A|-------------------------------------------------------------|
E|-------------------------------------------------------------|

e|-14-17-20p17p14----------------17-20-23p20p17-|
B|----------------------------------------------|
G|----------------20-17-15h17h20----------------|
D|----------------------------------------------|
A|----------------------------------------------|
E|----------------------------------------------|

e|------------------------|
B|------------------------|
G|-23-20-18h20h23-19b21~--|
D|------------------------|
A|------------------------|
E|------------------------|

e|----------12----------------12-------|
B|-13-14-16----16-14-13-14-16----16-14-|
G|-------------------------------------|
D|-------------------------------------|
A|-------------------------------------|
E|-------------------------------------|

e|----------12-14-16-17p16p14----16p14----|
B|-13-14-16-------------------17-------17-|
G|----------------------------------------|
D|----------------------------------------|
A|----------------------------------------|
E|----------------------------------------|

e|----------14----------------14-------|
B|-14-16-17----17-16-14-16-17----17-16-|
G|-------------------------------------|
D|-------------------------------------|
A|-------------------------------------|
E|-------------------------------------|

e|----------14-16-17-19p17p16----17p16----|
B|-14-16-17-------------------19-------19-|
G|----------------------------------------|
D|----------------------------------------|
A|----------------------------------------|
E|----------------------------------------|

e|----------16----------------16-17-20-|
B|-16-17-19----19-17-16-17-19----------|
G|-------------------------------------|
D|-------------------------------------|
A|-------------------------------------|
E|-------------------------------------|

e|-21-19-17-----------------------|
B|----------21-19-17--------------|
G|-------------------20-17--------|
D|-------------------------19-16--|
A|--------------------------------|
E|--------------------------------|

e|-5-------7-------8-------9-----|
B|-8b10~--10b12~--11b13~--12b14~-|
G|-------------------------------|
D|-------------------------------|
A|-------------------------------|
E|-------------------------------|

e|-0-14-16-17-16-14------------|
B|------------------17-16------|
G|-----------------------------|
D|------------------------16~--|
A|-----------------------------|
E|-----------------------------|

End Solo


5. Bite the Hand (Tabbed by kingaustink)



E |---------------------------|
B |---------------------------|
G |---------------------------|
D |---------------------------|
A |---------------------------|
E |-2--2--0-2-3-2--2--0-0-0-0-|
   *  *  * * * *  *  * * * *
E |---------------------------|
B |---------------------------|
G |---------------------------|
D |---------------------------|
A |---------------------------|
E |-2--2--0-2-3-2--2--2-0-2-3-|
   *  *  * * * *  *  * * *
E |---------------------------|
B |---------------------------|
G |---------------------------|
D |---------------------------|
A |---------------------------|
E |-2--2--0-2-3-2--2--0-0-0-0-|
   *  *  * * * *  *  * * * *
E |---------------------------|
B |---------------------------|
G |---------------------------|
D |---------------------------|
A |-------------------------5-|
E |-2--2--0-2-3-2--2--2-0-2-3-|
   *  *  * * * *  *  * * *

(riff 2)
E |---------------------------|
B |---------------------------|
G |---------------------------|
D |---------------------------|
A |-4--4----------------------|
E |-2--2--0-2-3-2--2--2-0-0-0-|
         * * * *  *  * * *
E |---------------------------|
B |---------------------------|
G |---------------------------|
D |---------------------------|
A |-4--4--------------------5-|
E |-2--2--0-2-3-2--2--2-0-2-3-|
         * * * *  *  * * *

(riff 3)
E |-----------------------------------|
B |-----------------------------------|
G |-5-----------------------7h8p7-5-7-|
D |-5-----7-----5-----7---------------|
A |---0-0---0-0---0-0---0-0-----------|
E |-----------------------------------|
     * *   * *   * *   * *
E |---------------------------------|
B |---------------------------------|
G |-5---------------5-----5-----5---|
D |-5-----7-----5---5-----5-----5---|
A |---0-0---0-0---0---x-x---x-x---x-|
E |---------------------------------|
     * *   * *   *   * *   * *   *
E |-----------------------------------|
B |-----------------------------------|
G |-5-----------------------7h8p7-5-7-|
D |-5-----7-----5-----7---------------|
A |---0-0---0-0---0-0---0-0-----------|
E |-----------------------------------|
     * *   * *   * *   * *
E |---------------------------------|
B |---------------------------------|
G |-5---------------5---7-5---7-5---|
D |-5-----7-----5---5-7-7-5-7-7-5-7-|
A |---0-0---0-0---0---7-----7-----7-|
E |---------------------------------|
     * *   * *   *

(riff 3a)
E |-----------------------------------|
B |-----------------------------------|
G |-5-----------------------7h8p7-5-7-|
D |-5-----7-----5-----7---------------|
A |---0-0---0-0---0-0---0-0-----------|
E |-----------------------------------|
     * *   * *   * *   * *        x2
E |---------------------------------|
B |-------------------------7/8-5h7-|
G |-5-----------------------7/8-5h7-|
D |-5-----7-----5-----7-------------|
A |---0-0---0-0---0-0---0-0---------|
E |---------------------------------|
     * *   * *   * *   * *
E |----------------------------|
B |----------------------------|
G |-5--------------------------|
D |-5-----7-----5-----7--------|
A |---0-0---0-0---0-0---0-0-5--|
E |-------------------------3--|
     * *   * *   * *   * *

(play - riff 2)
(play - riff 3)
(play - riff 3a)
(play - riff 2)

(riff 4)
E |---------------------------------|
B |---------------------------------|
G |---------------------------------|
D |---------------------------------|
A |---------------------------------|
E |-5-0-7-8-5-0-7-8-5-0-7-8-5-0-7-8-|
   * * * * * * * * * * * * * * * *
E |------------------------------|
B |------------------------------|
G |------------------------------|
D |------------------------------|
A |---------------------------5--|
E |-7-0-9-10-7-0-9-10-7-0-9-7-3--|
   * * *  * * * *  * * * * *

(riff 5)
E |------------------------------------------------------|
B |------------------------------------------------------|
G |------------------------------------------------------|
D |------------------------------------------------------|
A |-4--4--------5--5--------5--6--6--------5--5----7-6-5-|
E |-2--2--0-1-2-3--3--3-0-2-3--4--4--0-3-4-3--3--0-5-4-3-|
         * * *       * * *          * * *       *

(riff 4a)
E |---------------------------------|
B |---------------------------------|
G |---------------------------------|
D |---------------------------------|
A |---------------------------------|
E |-5-0-7-8-5-0-7-8-5-0-7-8-5-0-7-8-|
   * * * * * * * * * * * * * * * *
E |-------------------------------------------|
B |-------------------------------------------|
G |-------------------------------------------|
D |-------------------4p2p0-4p2p0-------------|
A |-------------------------------4p2p0-------|
E |-7-0-9-10-7-0-9-10-------------------4p2p0-|
   * * *  * * * *  *

(riff 5a)
E |------------------------------------------------------|
B |------------------------------------------------------|
G |------------------------------------------------------|
D |------------------------------------------------------|
A |-4--4--------5--5--------5--6--6--------5--5----7-6-5-|
E |-2--2--0-1-2-3--3--3-0-2-3--4--4--0-3-4-3--3--0-5-4-3-|
         * * *       * * *          * * *       *
E |------------------------------------------------------|
B |------------------------------------------------------|
G |------------------------------------------------------|
D |------------------------------------------------------|
A |-4--4--------5--5--------5--6--6--------7--7----7-6-5-|
E |-2--2--0-1-2-3--3--3-0-2-3--4--4--0-2-3-5--5--0-5-4-3-|
         * * *       * * *          * * *       *

(riff 6 - solo Rhythm)              x3
E |---------------------------------|
B |---------------------------------|
G |---------------------------------|
D |-5-------------------------------|
A |-5-----7-----5-----7-------------|
E |---0-0---0-0---0-0---0-0-0-0-0-0-|
     * *   * *   * *   * * * * * *
E |----------------------------|
B |----------------------------|
G |----------------------------|
D |-5--------------------------|
A |-5-----7-----5-----7-----3--|
E |---0-0---0-0---0-0---0-0-1--|
     * *   * *   * *   * *

(riff 7 - solo Rhythm)              x3
E |---------------------------------|
B |---------------------------------|
G |-2-------------------------------|
D |-2-----4-----2-----4-------------|
A |-------4-----2-----4-------------|
E |---2-2---2-2---2-2---2-2-2-2-2-2-|
     * *   * *   * *   * * * * * *
E |-----------------------------|
B |-----------------------------|
G |-2---------------------------|
D |-2-----4-----2-----4---------|
A |-------4-----2-----4-----5-6-|
E |---2-2---2-2---2-2---2-2-3-4-|
     * *   * *   * *   * *

(solo - Broderick)
E |-12------12h13p12------------|
B |-15b17~-----------15-16b17~--|
G |-----------------------------|
D |-----------------------------|
A |-----------------------------|
E |-----------------------------|

E |-12h14p12p11-14h15p14p12/14h15h17p15p14-19-15-----------|
B |--------------------------------------------------------|
G |----------------------------------------------19-17-16~-|
D |--------------------------------------------------------|
A |--------------------------------------------------------|
E |--------------------------------------------------------|

(guitar 1)
E |-------------------------15----17-15----15-17-19-19b20r19~-|
B |----16-17----19-17----19-------------19--------------------|
G |-16-------16-------16-------16-----------------------------|
D |-----------------------------------------------------------|
A |-----------------------------------------------------------|
E |-----------------------------------------------------------|

(guitar 2)
E |-----------------------------------------------------------|
B |-------------------------17----19-17----17-19-20-20b22r20~-|
G |-------17----20-17----20-------------20--------------------|
D |-17-21----17-------17-------17-----------------------------|
A |-----------------------------------------------------------|
E |-----------------------------------------------------------|

(back to one guitar)
E |-19p15----------------------------15-|
B |-------17----------------------18----|
G |----------16----------------18-------|
D |-------------17----------20----------|
A |----------------19-16h20-------------|
E |-------------------------------------|

E |-19b21~----19b21r19b22--(22)r20-19b21~--0-|
B |------------------------------------------|
G |------------------------------------------|
D |------------------------------------------|
A |------------------------------------------|
E |------------------------------------------|

E |-19-16-13---------------------------------|
B |--------------------19-16-13--------------|
G |----------19-16-13------------------------|
D |-----------------------------19-16-14-16~-|
A |------------------------------------------|
E |------------------------------------------|

E |--------------------------------|
B |-/17-17-------------------------|
G |--------18-15-18p15-------------|
D |--------------------17p14-------|
A |--------------------------16p13-|
E |--------------------------------|

E |-------------------------------------|
B |-------------------------------------|
G |-------------------------------------|
D |----------14----------------12-14-16-|
A |-12-13-16----16-13-12-13-16----------|
E |-------------------------------------|

E |------------------------------------------|
B |--------------------------------------13~-|
G |----------12-----------------12-14-16-----|
D |-12-14-16----16-14-12-14-16---------------|
A |------------------------------------------|
E |------------------------------------------|

(end solo)

(play - riff 3)
(play - riff 3a)
(play - riff 2)
(play - riff 30
(play - riff 3a)
(play - riff 2)
(play - riff 4)
(play - riff 5)
(play - riff 4a)
(play - riff 5a)

(final time for - riff 5a play)
E |---------------------------------------------------------|
B |---------------------------------------------------------|
G |---------------------------------------------------------|
D |---------------------------------------------------------|
A |-4--4--------5--5--------5--6--6--------7--------75-53-|
E |-2--2--0-1-2-3--3--3-0-2-3--4--4--0-3-4-5--5-5-5-53-31-|
         * * *       * * *          * * *    * * *

(riff 8 - solo Rhythm)
E |-------------------------|
B |-------------------------|
G |-------------------------|
D |-------5-----------------|
A |-5h7-7---7-7-5h7-7-8-7-7-|
E |-------------------------|

E |-------------------------|
B |-------------------------|
G |-------------------------|
D |-------5-----------------|
A |-5h7-7---7-7-----5h7-----|
E |-------------5h7-----5h7-|

(solo - Broderick)
E |-12p0-8-12p0-8------8--------|
B |---------------12p0---12p0-8-|
G |-----------------------------|
D |-----------------------------|
A |-----------------------------|
E |-----------------------------|

E |-------------0-8p0-12p0-8p0-|
B |-12p0-8-12p0----------------|
G |----------------------------|
D |----------------------------|
A |----------------------------|
E |----------------------------|

E |-12p0-8-12p0-8------8--------|
B |---------------12p0---12p0-8-|
G |-----------------------------|
D |-----------------------------|
A |-----------------------------|
E |-----------------------------|

E |-------------0-14p0-15p0-14p0-|
B |-12p0-8-12p0------------------|
G |------------------------------|
D |------------------------------|
A |------------------------------|
E |------------------------------|

E |-15p0-12-15p0-12------12---------|
B |-----------------13p0----13p0-12-|
G |---------------------------------|
D |---------------------------------|
A |---------------------------------|
E |---------------------------------|

E |-----------------14p0-12p0-14p0-|
B |-13p0-12-13p0-13----------------|
G |--------------------------------|
D |--------------------------------|
A |--------------------------------|
E |--------------------------------|

E |-19p0-15-19p0-15------15---------|
B |-----------------19p0----19p0-17-|
G |---------------------------------|
D |---------------------------------|
A |---------------------------------|
E |---------------------------------|

E |--------------------------------|
B |-19p0-17-19p0-17-13p0-17p0-13p0-|
G |--------------------------------|
D |--------------------------------|
A |--------------------------------|
E |--------------------------------|

(end solo)

(riff 9 - solo Rhythm)
E |--------------------------------------|
B |--------------------------------------|
G |--------------------------------------|
D |-------5-----------------5------------|
A |-5h7-7---7-7-/8-7--5h7-7---7-7-/8-7-5-|
E |-------------/6-5--------------/6-5-3-|

(solo - Broderick)
(guitar 1)
E |---------------------------------------------------|
B |---------------------------------------------------|
G |------12-14-14b15-14~----------12-14-14b15-14--12--|
D |-14~---------------------14-14---------------------|
A |---------------------------------------------------|
E |---------------------------------------------------|

E |---------12--------------------12------------------|
B |------------15-14b15-14~----------15-14b15-14--12--|
G |-14~--12--------------------12---------------------|
D |---------------------------------------------------|
A |---------------------------------------------------|
E |---------------------------------------------------|

E |------15-------------------------------------------|
B |-17~-----17-15-17b18-17~-------15-17-17b18-17--15--|
G |----------------------------16---------------------|
D |---------------------------------------------------|
A |---------------------------------------------------|
E |---------------------------------------------------|

E |-19~--17-15-17-17b18-17~----15-------------------------|
B |-------------------------------17-17-17b18-17--15--17~-|
G |-------------------------------------------------------|
D |-------------------------------------------------------|
A |-------------------------------------------------------|
E |-------------------------------------------------------|

(guitar 2)
E |---------------------------------------------------|
B |---------------------------------------------------|
G |------16-18-18b19-18~----------16-18-18b19-18--16--|
D |-17~---------------------17-17---------------------|
A |---------------------------------------------------|
E |---------------------------------------------------|

E |--------------------------------------------------|
B |---------20-18-17b18-17~-------20-18-17b18-17-----|
G |-18~--16--------------------16----------------19--|
D |--------------------------------------------------|
A |--------------------------------------------------|
E |--------------------------------------------------|

E |------19-------------------------------------------|
B |-20~-----20-19-20b22-20~-------18-20-20b22-20--19--|
G |----------------------------19---------------------|
D |---------------------------------------------------|
A |---------------------------------------------------|
E |---------------------------------------------------|

E |-22~--22-21-19-21b22-21~----19-19-21-21b22-21--19-------|
B |---------------------------------------------------20~--|
G |--------------------------------------------------------|
D |--------------------------------------------------------|
A |--------------------------------------------------------|
E |--------------------------------------------------------|

(end solo)

(riff 8a - solo Rhythm)
(guitar 1)
E |-------------------------|
B |-------------------------|
G |-------------------------|
D |-------5-----------------|
A |-5h7-7---7-7-5h7-7-8-7-7-|
E |-------------------------|

E |-------------------------|
B |-------------------------|
G |-------------------------|
D |-------5-----------------|
A |-5h7-7---7-7-----5h7-----|
E |-------------5h7-----5h7-|

(guitar 2)
E |-------------------------|
B |-------------------------|
G |-------4-----------------|
D |-4h5-5---5-5-4h5-5-7-5-5-|
A |-------------------------|
E |-------------------------|

E |-------------------------|
B |-------------------------|
G |-------4-----------------|
D |-4h5-5---5-5-------------|
A |-----------------5h7-----|
E |-------------5h7-----5h7-|

(solo - Broderick)
E |-12p0-8-12p0-8------8--------|
B |---------------12p0---12p0-8-|
G |-----------------------------|
D |-----------------------------|
A |-----------------------------|
E |-----------------------------|

E |-------------0-8p0-12p0-8p0-|
B |-12p0-8-12p0----------------|
G |----------------------------|
D |----------------------------|
A |----------------------------|
E |----------------------------|

E |-12p0-8-12p0-8------8--------|
B |---------------12p0---12p0-8-|
G |-----------------------------|
D |-----------------------------|
A |-----------------------------|
E |-----------------------------|

E |-------------0-14p0-15p0-14p0-|
B |-12p0-8-12p0------------------|
G |------------------------------|
D |------------------------------|
A |------------------------------|
E |------------------------------|

E |-15p0-12-15p0-12------12---------|
B |-----------------13p0----13p0-12-|
G |---------------------------------|
D |---------------------------------|
A |---------------------------------|
E |---------------------------------|

E |-----------------14p0-12p0-14p0-|
B |-13p0-12-13p0-13----------------|
G |--------------------------------|
D |--------------------------------|
A |--------------------------------|
E |--------------------------------|

E |-19p0-15-19p0-15------15---------|
B |-----------------19p0----19p0-17-|
G |---------------------------------|
D |---------------------------------|
A |---------------------------------|
E |---------------------------------|

E |--------------------------------|
B |-19p0-17-19p0-17-13p0-17p0-13p0-|
G |--------------------------------|
D |--------------------------------|
A |--------------------------------|
E |--------------------------------|

(end solo)

(riff 9a)
(guitars 1 & 2)
E |--------------------------------------|
B |--------------------------------------|
G |--------------------------------------|
D |-------5-----------------5------------|
A |-5h7-7---7-7-/8-7--5h7-7---7-7-/8-7-5-|
E |-------------/6-5--------------/6-5-3-|

(final time)
E |----------------------------------------------|
B |----------------------------------------------|
G |----------------------------------------------|
D |-------5-----------------5--------------------|
A |-5h7-7---7-7-/8-7--5h7-7---7-7-/8-7-5-7-5-3-2-|
E |-------------/6-5--------------/6-5-3-5-3-1-0-|

(guitar fill over - riff 9a)
E |-------------------------------------------|
B |-------------------------------------------|
G |----------12---------------------12--------|
D |-12h14-14----14-14------12h14-14----14-14--|
A |-------------------------------------------|
E |-------------------------------------------|



6. Bodies (Tabbed by Asterix_13)


Tuning: Standard

Riff 1 (Guitar fill in () )
e|--------------------------(0)-------------|
B|------------------------------------------|
G|------------------------------------------|
D|---------------3---------0-2----------5---|
A|-----5---3-2---1--3--3-2-0-2----------3-2-|
E|-0-0-3-0-1-0-0----1--1-0------------0---0-|
   * *   *     *                      *
e|------------------------------------------|
B|------------------------------------------|
G|------------------------------------------|
D|---------------3---------5-2----------5-2-|
A|-----5---3-2---1--3--3-2-5-2----------3-0-|
E|-0-0-3-0-1-0-0----1--1-0------------0-----|
   * *   *     *                      *
e|------------------------------------------|
B|------------------------------------------|
G|---------------3---------0-2----------5---|
D|-----5---3-3---1--3--3-2-0-2----------3---|
A|-0-0-3-0-1-0-0----1--1-0------------0---2-|
E|----------------------------------------0-|
   * *   *     *                      *
e|-----------------------------|
B|-----------------------------|
G|-----------------------------|
D|---------------3---------0-2-|
A|-----5---3-2---1--3--3-2-0-2-|
E|-0-0-3-0-1-0-0----1--1-0-----|
   * *   *     *
e|---------------------------------|
B|---------------------------------|
G|---------------------------------|
D|-------2-3-----3-4-----4-3---5---|
A|-------2-3-----3-4-----4-3---3---|
E|-0-0-0-----0-0-----0-0-----0---0-|
   * * *     * *     * *     *


Riff 2
e|---------------------------------|
B|---------------------------------|
G|---------------------------------|
D|-6-5-6-----------7-6-7------9-7~-|
A|-7-6-7---6-5-6---8-7-8-----10-8~-|
E|-------0-7-6-7-0-------0-0-------|
         *       *       * *
e|---------------------------------|
B|---------------------------------|
G|---------------------------------|
D|-6-5-6-----------7-6-7-----------|
A|-7-6-7---6-5-6---8-7-8---3--5--6-|
E|-------0-7-6-7-0-------0-1--3--4-|
         *       *       * *  *
e|---------------------------------|
B|---------------------------------|
G|---------------------------------|
D|-6-5-6-----------7-6-7------9-7~-|
A|-7-6-7---6-5-6---8-7-8-----10-8~-|
E|-------0-7-6-7-0-------0-0-------|
         *       *       * *
e|---------------------------------|
B|---------------------------------|
G|---------------------------------|
D|-6-5-6---------------------------|
A|-7-6-7---6-5-6-------------------|
E|-------0-7-6-7-0-6-6-6-5-5-5-3-3-|
         *       * * * * * * * * *

Riff 3
e|------------------------------|
B|------------------------------|
G|------------------------------|
D|---5-------7------2-------4---|
A|-----7---9---9------3---5---5-|
E|-0-----0-------0------0-------|
   
e|---------------------------------|
B|---------------------------------|
G|---------------------------------|
D|------2-----4--------------------|
A|----3-----5---5------------------|
E|-0------0-------0--3-4-5-6-5-4-3-|
                     * * * * * * *

Riff 4
e|-----------------------------|
B|-----------------------------|
G|-----------------------------|
D|---------------3---------0-2-|
A|-----5---3-2---1--3--3-2-0-2-|
E|-0-0-3-0-1-0-0----1--1-0-----|
   * *   *     *
e|---------------------------------|
B|---------------------------------|
G|---------------------------------|
D|-------2-3-----3-4-----4-3---5---|
A|-------2-3-----3-4-----4-3---3-2-|
E|-0-0-0-----0-0-----0-0-----0---0-|
   * * *     * *     * *     *
e|-----------------------------|
B|-----------------------------|
G|-----------------------------|
D|---------------3---------0-2-|
A|-----5---3-2---1--3--3-2-0-2-|
E|-0-0-3-0-1-0-0----1--1-0-----|
   * *   *     *
e|---------------------------------|
B|---------------------------------|
G|---------------------------------|
D|-------2-3-----3-4-----4-3---5-2-|
A|-------2-3-----3-4-----4-3---3-0-|
E|-0-0-0-----0-0-----0-0-----0-----|
   * * *     * *     * *     *
e|-----------------------------|
B|-----------------------------|
G|---------------3---------0-2-|
D|-----5---3-3---1--3--3-2-0-2-|
A|-0-0-3-0-1-0-0----1--1-0-----|
E|-----------------------------|
   * *   *     *
e|---------------------------------|
B|---------------------------------|
G|-------2-3-----3-4-----4-3---5---|
D|-------2-3-----3-4-----4-3---3---|
A|-0-0-0-----0-0-----0-0-----0---2-|
E|-------------------------------0-|
   * * *     * *     * *     *
e|-----------------------------|
B|-----------------------------|
G|-----------------------------|
D|---------------3---------0-2-|
A|-----5---3-2---1--3--3-2-0-2-|
E|-0-0-3-0-1-0-0----1--1-0-----|
   * *   *     *
e|---------------------------------|
B|---------------------------------|
G|---------------------------------|
D|-------2-3-----3-4-----4-3---5---|
A|-------2-3-----3-4-----4-3---3---|
E|-0-0-0-----0-0-----0-0-----0---0-|
   * * *     * *     * *     *


Play Riff 2
Play Riff 3  1x

Riff 3a
e|------------------------------|
B|------------------------------|
G|------------------------------|
D|---5-------7------2-------4---|
A|-----7---9---9------3---5---5-|
E|-0-----0-------0------0-------|
   
e|---------------------|
B|---------------------|
G|---------------------|
D|------2-----4--------|
A|----3-----5---5------|
E|-0------0-------0----|

e|---------------------------------|
B|---------------------------------|
G|---------------------------------|
D|------2-----4--------------------|
A|----3-----5---5------------------|
E|-0------0-------0--3-4-5-6-5-4-3-|
                     * * * * * * *


Riff 5  (Solo Rhythm)
e|-----------------------------|
B|-----------------------------|
G|-----------------------------|
D|-----------------------------|
A|---------7----------7------7-|
E|-5-5-5-5-5--5-5-5-5-5--5-5-5-|
   * * * *    * * * *    * *
e|-----------------------------|
B|-----------------------------|
G|-----------------------------|
D|-----------------------------|
A|---------6----------5------5-|
E|-4-4-4-4-4--4-4-3-3-3--3-3-3-|
   * * * *    * * * *    * *
e|-----------------------------|
B|-----------------------------|
G|-----------------------------|
D|-----------------------------|
A|---------4----------4------4-|
E|-2-2-2-2-2--2-2-2-2-2--2-2-2-|
   * * * *    * * * *    * *
e|-----------------------------|
B|-----------------------------|
G|-----------------------------|
D|-----------------------5-----|
A|---------3----------2--3--5--|
E|-1-1-1-1-1--1-1-0-0-0-----3--|
   * * * *    * * * *

Solo (Mustaine)
Guitar 1
e|--------------------------------|
B|--------------------------------|
G|-4-5---------4-5---------4-5----|
D|-----7-5-7~------7-5-7~------7~-|
A|--------------------------------|
E|--------------------------------|

e|--------------------------------|
B|--------------------------------|
G|-4-5---------4-5-/7--4--4-5-----|
D|-----7-5-7~-----------------7~--|
A|--------------------------------|
E|--------------------------------|

e|--------------------------------|
B|--------------------------------|
G|-4-5---------4-5---------4-5----|
D|-----7-5-7~------7-5-7~------7~-|
A|--------------------------------|
E|--------------------------------|

1st ending:
e|-----------------------------------------|
B|-----------------------------------------|
G|-4-5---------4-5-7-5-4---5-4-----4-------|
D|-----7-5-7~------------7-----7-5---7-5-4-|
A|-----------------------------------------|
E|-----------------------------------------|

2nd ending:
e|-------------------------------------------------------|
B|-------------------------------------------------------|
G|-4-5---------4-5-10-9-7----9-7------7------------------|
D|-----7-5-7~-------------10-----10-9---10-9-7-10-9-7----|
A|----------------------------------------------------10-|
E|-------------------------------------------------------|


Guitar 2
e|---------------------------------------------|
B|-12-13------------12-13------------12-13-----|
G|-------14-12-14~--------14-12-14~--------14~-|
D|---------------------------------------------|
A|---------------------------------------------|
E|---------------------------------------------|

e|-------------------------------------------|
B|-12-13------------12-13-/15--12--12-13-----|
G|-------14-12-14~-----------------------14~-|
D|-------------------------------------------|
A|-------------------------------------------|
E|-------------------------------------------|

e|---------------------------------------------|
B|-12-13------------12-13------------12-13-----|
G|-------14-12-14~--------14-12-14~--------14~-|
D|---------------------------------------------|
A|---------------------------------------------|
E|---------------------------------------------|

1st ending:
e|------------------------------------------------------------|
B|-12-13------------12-13-15-13-12----13-12-------12----------|
G|-------14-12-14~-----------------14-------14-12----14-12-11-|
D|------------------------------------------------------------|
A|------------------------------------------------------------|
E|------------------------------------------------------------|

2nd ending:
e|------------------------|
B|-12-13------------12-13-|
G|-------14-12-14~--------|
D|------------------------|
A|------------------------|
E|------------------------|

e|-13-12-10----12-10-------10----------------------|
B|----------13-------13-12----13-12-10-13-12-10----|
G|----------------------------------------------12-|
D|-------------------------------------------------|
A|-------------------------------------------------|
E|-------------------------------------------------|


Guitar 3 (Only comes in the 2nd play of Riff 5)
e|-------------------------------------|
B|-------------------------------------|
G|-7-9-----------7-9-----------7-9-----|
D|-----10-9-10~------10-9-10~------10~-|
A|-------------------------------------|
E|-------------------------------------|

e|-----------------------------------|
B|-----------------------------------|
G|-7-9-----------7-9-/10--7--7-9-----|
D|-----10-9-10~------------------10~-|
A|-----------------------------------|
E|-----------------------------------|

e|-------------------------------------|
B|-------------------------------------|
G|-7-9-----------7-9-----------7-9-----|
D|-----10-9-10~------10-9-10~------10~-|
A|-------------------------------------|
E|-------------------------------------|

e|-------------------------------------------------------------------|
B|-------------------------------------------------------------------|
G|-7-9-----------7-9-14-12-10----12-10-------10----------------------|
D|-----10-9-10~---------------14-------14-12----14-12-10-14-12-10----|
A|----------------------------------------------------------------14-|
E|-------------------------------------------------------------------|

End Solo


Riff 6 (Solo Rhythm)
Guitar 1
e|-----------------------------|
B|-----------------------------|
G|-----------------------------|
D|-----------------------------|
A|---3----------3----------3---|
E|-5---5-0-5--5---5-0-5--5---5-|
   * * * * *  * * * * *  * * *
e|-----------------------------|
B|-----------------------------|
G|-----------------------------|
D|-----------------------------|
A|---3----------3----------3---|
E|-4---4-0-4--4---4-0-4--4---4-|
   * * * * *  * * * * *  * * *
e|-----------------------------|
B|-----------------------------|
G|-----------------------------|
D|-----------------------------|
A|---3----------3----------3---|
E|-3---3-0-3--3---3-0-3--3---3-|
   * * * * *  * * * * *  * * *
e|-----------------------------|
B|-----------------------------|
G|-----------------------------|
D|-----------------------5-----|
A|---------3----------2--3--5--|
E|-1-1-1-1-1--1-1-0-0-0-----3--|
   * * * *    * * * *

Guitar 2
e|-----------------------------|
B|-----------------------------|
G|---5----------5----------5---|
D|-7---7---7--7---7---7--7---7-|
A|-------7----------7----------|
E|-----------------------------|
   * * * * *  * * * * *  * * *
e|-----------------------------|
B|-----------------------------|
G|---5----------5----------5---|
D|-6---6---6--6---6---6--6---6-|
A|-------7----------7----------|
E|-----------------------------|
   * * * * *  * * * * *  * * *
e|-----------------------------|
B|-----------------------------|
G|---5----------5----------5---|
D|-5---5---5--5---5---5--5---5-|
A|-------7----------7----------|
E|-----------------------------|
   * * * * *  * * * * *  * * *
e|-----------------------------|
B|-----------------------------|
G|-----------------------------|
D|-----------------------5-----|
A|---------3----------2--3--5--|
E|-1-1-1-1-1--1-1-0-0-0-----3--|
   * * * *    * * * *

Riff 6a (Solo Rhythm)
Guitar 1
e|-----------------------------|
B|-----------------------------|
G|-----------------------------|
D|---2----------2----------2---|
A|-3---3---3--3---3---3--3---3-|
E|-------5----------5----------|
   * * * * *  * * * * *  * * *
e|-----------------------------|
B|-----------------------------|
G|-----------------------------|
D|---2----------2----------2---|
A|-3---3---3--3---3---3--3---3-|
E|-------4----------4----------|
   * * * * *  * * * * *  * * *
e|-----------------------------|
B|-----------------------------|
G|-----------------------------|
D|---2----------2--------5-5-5-|
A|-3---3---3--3---3---3--3-3-3-|
E|-------3----------3----------|
   * * * * *  * * * * *
e|-----------------------------|
B|-----------------------------|
G|-----------------------------|
D|-----------------------5-----|
A|---------3----------2--3--5--|
E|-1-1-1-1-1--1-1-0-0-0-----3--|
   * * * *    * * * *

Guitar 2
e|-----------------------------|
B|-----------------------------|
G|---5----------5----------5---|
D|-7---7---7--7---7---7--7---7-|
A|-------7----------7----------|
E|-----------------------------|
   * * * * *  * * * * *  * * *
e|-----------------------------|
B|-----------------------------|
G|---5----------5----------5---|
D|-6---6---6--6---6---6--6---6-|
A|-------7----------7----------|
E|-----------------------------|
   * * * * *  * * * * *  * * *
e|-----------------------------|
B|-----------------------------|
G|---5----------5--------------|
D|-5---5---5--5---5---5--5-5-5-|
A|-------7----------7----3-3-3-|
E|-----------------------------|
   * * * * *  * * * * *
e|-----------------------------|
B|-----------------------------|
G|-----------------------------|
D|-----------------------5-----|
A|---------3----------2--3--5--|
E|-1-1-1-1-1--1-1-0-0-0-----3--|
   * * * *    * * * *


Solo (Broderick)
Guitar 1 (Play 2x)
e|------------------------------------|
B|-10~--/13~--13-12-13-13b15r13-13p12-|
G|------------------------------------|
D|------------------------------------|
A|------------------------------------|
E|------------------------------------|

e|--------------------------------|
B|-9~--/13~--13-12-13-15b17r15-13-|
G|--------------------------------|
D|--------------------------------|
A|--------------------------------|
E|--------------------------------|

e|----------------------------|
B|-8~--13~--15-13-15-17-15-17-|
G|----------------------------|
D|----------------------------|
A|----------------------------|
E|----------------------------|
                                 Final note
e|-------------------------------|-----|
B|-17b18--17~--17-15-13-15-13-12-|-10~-|
G|-------------------------------|-----|
D|-------------------------------|-----|
A|-------------------------------|-----|
E|-------------------------------|-----|

Guitar 2
e|---------------------------------|
B|-13~--/17~--17-15-17-17b18r17p15-|
G|---------------------------------|
D|---------------------------------|
A|---------------------------------|
E|---------------------------------|

e|---------------------------------|
B|-13~--/17~--17-15-17-18b20r18p17-|
G|---------------------------------|
D|---------------------------------|
A|---------------------------------|
E|---------------------------------|

e|------------------------------|
B|-13~--/17~--18-17-18-20-18-20-|
G|------------------------------|
D|------------------------------|
A|------------------------------|
E|------------------------------|

e|-------------------------------|
B|-20b22--20~--20-18-17-18-17-15-|
G|-------------------------------|
D|-------------------------------|
A|-------------------------------|
E|-------------------------------|

e|------------------------------------|
B|-13~--/17~--17-15-17-17b18r17-15h17-|
G|------------------------------------|
D|------------------------------------|
A|------------------------------------|
E|------------------------------------|

e|---------------------------------|
B|-13~--/17~--17-15-17-18b20r18p17-|
G|---------------------------------|
D|---------------------------------|
A|---------------------------------|
E|---------------------------------|

e|------------------------------|
B|-13~--/17~--18-17-18-20-18-20-|
G|------------------------------|
D|------------------------------|
A|------------------------------|
E|------------------------------|

e|-------------------------------|
B|-20b22--20~--20-18-17-18-17-15-|
G|-------------------------------|
D|-------------------------------|
A|-------------------------------|
E|-------------------------------|

End Solo


Riff 7 (Solo Rhythm)
e|------------------------|
B|------------------------|
G|------------------------|
D|--------9--8------------|
A|-7--10--7--6--10--9--8--|
E|-5---8---------8--7--6--|


Solo (Mustaine)
e|-11tr12------------------------------------18tr19-|
B|------------------------------------17tr18--------|
G|-----------------------------15tr16---------------|
D|----------------------14tr15----------------------|
A|---------------13tr14-----------------------------|
E|--------------------------------------------------|

End Solo


Riff 8 (Solo Rhythm)
e|---------------------------------------|
B|---------------------------------------|
G|---------------------------------------|
D|---------------------------------------|
A|------7------7----7------6------5----5-|
E|-5555-5-5555-5-55-5-4444-4-4433-3-33-3-|
   ****   ****   **   ****   ****   **
e|--------------------------------------|
B|--------------------------------------|
G|--------------------------------------|
D|----------------------------------5---|
A|------4------4----4------3------2-3-5-|
E|-2222-2-2222-2-22-2-1111-1-1100-0---3-|
   ****   ****   **   ****   ****


Solo (Mustaine)
e|-------------------------------------------------|
B|---------12-13-12h13p12p10-12-13-12b13~----12-13-|
G|-12b14~------------------------------------------|
D|-------------------------------------------------|
A|-------------------------------------------------|
E|-------------------------------------------------|

e|-10---------12--------------------------|
B|----13b15~-----13-10-10b12--(12)r10b12~-|
G|----------------------------------------|
D|----------------------------------------|
A|----------------------------------------|
E|----------------------------------------|

e|-15b17~--15--13--12h13p12----12----------------------|
B|--------------------------15----13-15-13\-9~----9-10-|
G|-----------------------------------------------------|
D|-----------------------------------------------------|
A|-----------------------------------------------------|
E|-----------------------------------------------------|

e|----------------------------------------------------|
B|-13b15r13b15~---9-10-12b13r12b13--(13)r12-12h13-10~-|
G|----------------------------------------------------|
D|----------------------------------------------------|
A|----------------------------------------------------|
E|----------------------------------------------------|

End Solo


Riff 8a (Solo Rhythm)
e|---------------------------------------|
B|---------------------------------------|
G|---------------------------------------|
D|---------------------------------------|
A|------7------7----7------9------9----9-|
E|-5555-5-5555-5-55-5-7777-7-7777-7-77-7-|
   ****   ****   **   ****   ****   **
e|-------------------------------------------------------|
B|-------------------------------------------------------|
G|-------------------------------------------------------|
D|-------------------------------------------------------|
A|------10------10----10----------12----------13------13-|
E|-8888--8-8888--8-88--8-10101010-10-10101111-11-1111-11-|
   ****    ****    **     * * * *     * * * *     * *


Solo (Broderick)
e|-------------------------17p12----12-17p12----------|
B|-------------17p13----13-------13----------13----13-|
G|-17p14----14-------14-------------------------14----|
D|-------14-------------------------------------------|
A|----------------------------------------------------|
E|----------------------------------------------------|

e|-16p12----12-------------15p10----10-15p10----------|
B|-------12----17p12----12-------12----------12----12-|
G|-------------------13-------------------------12----|
D|----------------------------------------------------|
A|----------------------------------------------------|
E|----------------------------------------------------|

e|-14p10----10-------------------------15----------10-|
B|-------10----------------15p10----10----10h12h13----|
G|-------------14p11----11-------11-------------------|
D|-------------------12-------------------------------|
A|----------------------------------------------------|
E|----------------------------------------------------|

e|-13p10----10-----------------------------------------|
B|-------10----10h15p10----10-17p12----12/18-21p18\17--|
G|----------------------10----------13-----------------|
D|-----------------------------------------------------|
A|-----------------------------------------------------|
E|-----------------------------------------------------|

e|-19b20~----19----19\17---17\13----|
B|---------0------------------------|
G|--------------16------14-------10-|
D|----------------------------------|
A|----------------------------------|
E|----------------------------------|

e|-13/15-----15\12---12-12~----(12)/-|
B|-----------------------------------|
G|-------12--------9-----------------|
D|-----------------------------------|
A|-----------------------------------|
E|-----------------------------------|

e|-17p14----14\10----12p10-|
B|-------15-------10-------|
G|-------------------------|
D|-------------------------|
A|-------------------------|
E|-------------------------|

e|-15p12----12\-8---11p8-8h11~-|
B|-------13-------8------------|
G|-----------------------------|
D|-----------------------------|
A|-----------------------------|
E|-----------------------------|

End Solo



Ending:
e|------------------------------------|
B|------------------------------------|
G|------------------------------------|
D|----5--8--7-----------5--8--7-------|
A|-6--3--6--5--8--7--6--3--6--5--8--7-|
E|-4-----------6--5--4-----------6--5-|

e|----------------------------------------|
B|----------------------------------------|
G|----------------------------------------|
D|----5--8--7-----------5--8--7-----------|
A|-6--3--6--5--8--7--6--3--6--5--8--7--6--|
E|-4-----------6--5--4-----------6--5--4--|



7. Endgame (Tabbed by Fuzat')

E---------------------------------------------------------------|
B---------------------------------------------------------------|
G---------------------------------------------------------------|
D------5--------------4-------------5---------------------------|    X2
A----4--------------4-------------4--------------4--------------|
E-2------2-0-2-3-2-------3-2-0-2------2-0-2-3-2-----3-2-0-3-2-0-|


E---------------------------------------------------------------|
B---------------------------------------------------------------|
G---------------------------------------------------------------|
D------5--------------4-------------5---------------------------|    X2
A----4--------------4-------------4--------------4--------------|
E-2-----2-0-2-3-2------2-0-2-3-2------2-0-2-3-2-----3-2-0-3-2-0-|


E------------------------------------------------------------------------------------------------|
B------------------------------------------------------------------------------------------------|
G------------------------------------------------------------------------------------------------|
D--------------5----------------------4----------------------5-----------------------------------|X2
A--------4----------------------4----------------------4----------------------4------------------|
E-2--2-2---2-2---2-0-2-3-2--2-2---2-2---2-0-2-3-2--2-2---2-2---2-0-2-3-2--2-2---2-2-3-2-0-3-2-0--|


E-----------------------------------------------|
B-----------------------------------------------|
G-----------------------------------------------|
D-10--9--8--7--6-5--4--4-4-4-4-2--4--4-4-4-4-5--|    X3
A-10--9--8--7--6-5--4--4-4-4-4-2--4--4-4-4-4-5--|
E-8---7--6--5--4-3--2--2-2-2-2-0--2--2-2-2-2-3--|


E--------------------------------------------------|
B--------------------------------------------------|
G--------------------------------------------------|
D-10--9--8--7--6-5----4-4-4-4-4-4-4-4-4-4-4-4-4-5--|
A-10--9--8--7--6-5----4-4-4-4-4-4-4-4-4-4-4-4-4-5--|
E-8---7--6--5--4-3----2-2-2-2-2-2-2-2-2-2-2-2-2-3--|


E------------------------------------------------------------------|
B------------------------------------------------------------------|
G------------------------------------------------------------------|
D-2---------------9-8---------------9-8-2-4-5-2----------------7-9-|    X3
A-2---------------9-8---------------9-8-2-4-5-2----------------5-7-|
E-0--0-0-0--0-0-0-7-6--0-0-0--0-0-0-7-6-0-2-3-0--0-0-0--0-0-0------|


E--------------------------------------------------------------|
B--------------------------------------------------------------|
G--------------------------------------------------------------|
D-2---------------9-8---------------9-8-2-4-5-2----------------|
A-2---------------9-8---------------9-8-2-4-5-2----------------|
E-0--0-0-0--0-0-0-7-6--0-0-0--0-0-0-7-6-0-2-3-0--0-0-0--0-0-0--|


E--------------------------------------------------------------------|
B--------------------------------------------------------------------|
G--------------------------------------------------------------------|
D------------------------5---------------------------------4---------|    X4
A---------------4---------------------------------4------------------|
E-2-3-2--2-2-2----2-2-2-----2-2-2-0-2-3-2--2-2-2----2-2-2----2-2-2-0-|


E-----------------------------------------------|
B-----------------------------------------------|
G-----------------------------------------------|
D-10--9--8--7--6-5--4--4-4-4-4-2--4--4-4-4-4-5--|    X3
A-10--9--8--7--6-5--4--4-4-4-4-2--4--4-4-4-4-5--|
E-8---7--6--5--4-3--2--2-2-2-2-0--2--2-2-2-2-3--|


E------------------------------------------------|
B------------------------------------------------|
G------------------------------------------------|
D-10--9--8--7--6-5----4--4-4-4-4-4-4-4-4-4-4-4-5-|
A-10--9--8--7--6-5----4--4-4-4-4-4-4-4-4-4-4-4-5-|
E-8---7--6--5--4-3----2--2-2-2-2-2-2-2-2-2-2-2-3-|


E------------------------------------------------------------------|
B------------------------------------------------------------------|
G------------------------------------------------------------------|
D-2---------------9-8---------------9-8-2-4-5-2----------------7-9-|    X3
A-2---------------9-8---------------9-8-2-4-5-2----------------5-7-|
E-0--0-0-0--0-0-0-7-6--0-0-0--0-0-0-7-6-0-2-3-0--0-0-0--0-0-0------|


E--------------------------------------------------------------|
B--------------------------------------------------------------|
G--------------------------------------------------------------|
D-2---------------9-8---------------9-8-2-4-5-2----------------|
A-2---------------9-8---------------9-8-2-4-5-2----------------|
E-0--0-0-0--0-0-0-7-6--0-0-0--0-0-0-7-6-0-2-3-0--0-0-0--0-0-0--|


E--------------------------------------------------------------------|
B--------------------------------------------------------------------|
G--------------------------------------------------------------------|
D------------------------5---------------------------------4---------|   X4
A---------------4---------------------------------4------------------|
E-2-3-2--2-2-2----2-2-2-----2-2-2-0-2-3-2--2-2-2----2-2-2----2-2-2-0-|


E-----------------------------------------------|
B-----------------------------------------------|
G-----------------------------------------------|
D-10--9--8--7--6-5--4--4-4-4-4-2--4--4-4-4-4-5--|    X3
A-10--9--8--7--6-5--4--4-4-4-4-2--4--4-4-4-4-5--|
E-8---7--6--5--4-3--2--2-2-2-2-0--2--2-2-2-2-3--|


E------------------|
B------------------|
G------------------|
D-10--9--8--7--6-5-|
A-10--9--8--7--6-5-|
E-8---7--6--5--4-3-|


E-------------------------------------------------------------------------------------------------|
B-------------------------------------------------------------------------------------------------|
G-------------------------------------------------------------------------------------------------|
D---4---------4-------------------------------------4---------4----------------------------------X2
A-------------------------------------------------------------------------------------------------|
E-2---5-4-4-2---4-5-4-2--3-3-3--3-3-3-3--3-3-5-3--2---5-4-4-2---4-5-4-2--3-3-3--3-3-3-3--3-3-5-3--|


E----------------------------|
B----------------------------|
G----------------------------|
D-11-10-9--7-9--11-10-9--5-2-|     X4
A-11-10-9--5-7--11-10-9--5-2-|
E-9--8--7-------9--8--7--3-0-|


E------------------------------------------------------------------------------------------------|
B------------------------------------------------------------------------------------------------|
G------------------------------------------------------------------------------------------------|
D---4---------4-------------------------------------4---------4----------------------------------|X2
A------------------------------------------------------------------------------------------------|
E-2---5-4-4-2---4-5-4-2--3-3-3--3-3-3-3--3-3-5-3--2---5-4-4-2---4-5-4-2--3-3-3--3-3-3-3--3-3-5-3-|


E----------------------------|
B----------------------------|
G----------------------------|
D-11-10-9--7-9--11-10-9--5-2-|     X4
A-11-10-9--5-7--11-10-9--5-2-|
E-9--8--7-------9--8--7--3-0-|


E-------------------------------------------------------------------------------------|
B-------------------------------------------------------------------------------------|
G-------------------------------------------------------------------------------------|
D-------------------------------------------------------------------------------------|
A-------------------------------------------------------------------------------------|
E-2-2-2-2-2-2-2-2-2-2-2-2-2-2-2-2-2-2-2-2-2-2-2-2-2-2-2-2-2-2-2-2-2-2-4-4-4-4-4-4-4-4-|

--------------------------------------------------------|
--------------------------------------------------------|
--------------------------------------------------------|
--------------------------------------------------------|
--------------------------------------------------------|
4-4-4-4-4-4-4-4-4-4-4-4-4-4-4-4-4-4-4-4-4-4-4-4-4-4-4-4-|

E-------------------------------------------------------------------------------------------|
B-------------------------------------------------------------------------------------------|
G-------------------------------------------------------------------------------------------|
D-------------------------------------------------------------------------------------------|
A-------------------------------------------------------------------------------------------|
E-2-2-2-2-2-2-2-2-2-2-2-2-2-2-2-2-2-2-2-2-2-2-2-2-2-2-2-2-2-2-2-2-2-2-2-2-2-2-2-2-2-2-2-2-2-|

--------------------------------------------------|
--------------------------------------------------|
--------------------------------------------------|
--------------------------------------------------|
--------------------------------------------------|
2-2-2-2-2-2-2-2-2-2-2-2-2-2-2-2-2-2-2-2-2-2-2-2-2-|


8. The Hardest Part of Letting Go...Sealed With a Kiss (Tabbed by keller dude4


Lead:

e|------------------------------------------------------|
B|------------------------------------------------------|
G|------------------------------------------------------|
D|--0----0-2-3-5-3-2-0------0-2-3-5-3-2-0---------------|
A|---------------------4~-----------------3~------------|
E|------------------------------------------------------|

Rhythm:

e|--1--1--1--1---1-1-111--1--1--1---1-1-111-------------|
B|--3--3--3--3----33-332--2--2--2----22-221-------------|
G|--2--2--2--2-----2-222--2--2--2-----2-222-------------|
D|--0--0--0--0--0--0-000--0--0--0--0--0-000-------------|
A|------------------------------------------------------|
E|------------------------------------------------------|

e|------------------------------------------------------|
B|------------------------------------------------------|
G|----0-2-3-5-3-2-0-----0-2-5-3~-2-0---0~---------------|
D|------------------2~---------------4------------------|
A|------------------------------------------------------|
E|------------------------------------------------------|

e|--1--1--1---1-1-111--1--1--1---1-1-111----------------|
B|--1--1--1----11-110--0--0--0----00-003----------------|
G|--2--2--2-----2-222--2--2--2-----2-222----------------|
D|--0--0--0--0--0-000--0--0--0--0--0-000----------------|
A|------------------------------------------------------|
E|------------------------------------------------------|

REPEAT ONCE MORE

Verse 1:

e|--1--1--1--1---1-1-111--1--1--1---1-1-111-------------|
B|--3--3--3--3----33-332--2--2--2----22-221-------------|
G|--2--2--2--2-----2-222--2--2--2-----2-222-------------|
D|--0--0--0--0--0--0-000--0--0--0--0--0-000-------------|
A|------------------------------------------------------|
E|------------------------------------------------------|

e|--1--1--1---1-1-111--1--1--1---1-1-111----------------|
B|--1--1--1----11-110--0--0--0----00-003----------------|
G|--2--2--2-----2-222--2--2--2-----2-222----------------|
D|--0--0--0--0--0-000--0--0--0--0--0-000----------------|
A|------------------------------------------------------|
E|------------------------------------------------------|

REPEAT THIS RIFF TWICE

Verse 2:

e|----1-----0---------1-----0---------------------------|
B|------3-----3---3-----3-----3---3---------------------|
G|--------2-----2---------2-----2-----------------------|
D|--0---------------0-----------------------------------|
A|------------------------------------------------------|
E|------------------------------------------------------|
REPEAT THIS 4 TIMES

e|----13-10----17-13---------13-10----17-13-------------|
B|----------10-------15------------10-------15----------|
G|----------------------14---------------------14-------|
D|--0----------------------0----------------------------|
A|------------------------------------------------------|
E|------------------------------------------------------|
THEN THIS 4 TIMES

Mini-Lead (Play Verse 2 under this)

e|---18--b--20~~-17h18p17p15--b--17--r-15--12h13p12-----|
B|-------------------------------------------------15~~~|
G|------------------------------------------------------|
D|------------------------------------------------------|
A|------------------------------------------------------|
E|------------------------------------------------------|

e|--17h18p17p15h17-20b22-20b22-20b22-20b22-17h20p17-15--|
B|------------------------------------------------------|
G|------------------------------------------------------|
D|------------------------------------------------------|
A|------------------------------------------------------|
E|------------------------------------------------------|

e|--17s20s15--13-15-12------b------13-------------------|
B|------------------------------------------------------|
G|------------------------------------------------------|
D|------------------------------------------------------|
A|------------------------------------------------------|
E|------------------------------------------------------|


DISTORTION: ON

e|------------------------------------------------------|
B|------------------------------------------------------|
G|------------------------------------------------------|
D|--3---2-------3---2-----------3---2---------3-2-------|
A|--1---0-5-----1---0-5--3-2----1---0-5--3-2--1-0--2----|
E|--------3-----------3--1-0----------3--1-0-------0----|

e|------------------------------------------------------|
B|------------------------------------------------------|
G|------------------------------------------------------|
D|-7---------7-8---------------5---------5-6------------|
A|-5-555-555-5-5-555-555-555-5-5-555-555-5-5-555-555-555|
E|------------------------------------------------------|
                       ^
                       |
VERSE 3:               |
|
Play the distorted triplets under this lead:

e|------------------------------------------------------|
B|--15-------------------------------15-----------------|
G|-----13-------------------------------13--------------|
D|--------15-12~---------------------------15-12~-------|
A|------------------------------------------------------|
E|------------------------------------------------------|

e|---------------13-------------------------------------|
B|------15----------11----------------------------------|
G|---------13----------12-------------------------------|
D|---12-------15----------------------------------------|
A|------------------------------------------------------|
E|------------------------------------------------------|

Now this Riff:

e|------------------------------------------------------|
B|------------------------------------------------------|
G|------------------------------------------------------|
D|--3---2-------3---2-----------3---2---------3-2-------|
A|--1---0-5-----1---0-5--3-2----1---0-5--3-2--1-0--2----|
E|--------3-----------3--1-0----------3--1-0-------0----|

Then keep playing the triplets under the SOLO

SOLO:

e|------------------------------12-15-12b13r12-10-12~---|
B|--13b15r13b15--15b17r15b17--15------------------------|
G|------------------------------------------------------|
D|------------------------------------------------------|
A|------------------------------------------------------|
E|------------------------------------------------------|

e|--/17-13-15-12-13-10-12-8-12-b-13-r-12----------------|
B|---------------------------------------10~------------|
G|------------------------------------------------------|
D|------------------------------------------------------|
A|------------------------------------------------------|
E|------------------------------------------------------|

e|--/15-12-13-10-12-8-10-6------------------------------|
B|-------------------------6~~~-------------------------|
G|------------------------------------------------------|
D|------------------------------------------------------|
A|------------------------------------------------------|
E|------------------------------------------------------|

e|--17b18r17-15-----------------------------------------|
B|------------------------------------------------------|
G|------------------------------------------------------|
D|--------------------------------14-15-17--------------|
A|-----------------------13-15-17----------13-15-17-----|
E|--------------13-15-17--------------------------------|

e|-------------------------------17b18r17-15------------|
B|----------------------15-17-18-------------18-17------|
G|-------------14-15-17---------------------------------|
D|----14-15-17------------------------------------------|
A|------------------------------------------------------|
E|------------------------------------------------------|

e|---15-12----------------------------------------------|
B|---------13-------------------------------------------|
G|------------12----------------------------------------|
D|---------------14-------------------------------------|
A|------------------15----------------------------------|
E|---------------------15~~-----------------------------|

e|---17b18r17-15~---18-17---20b22r20-17-----------------|
B|------------------------------------------------------|
G|------------------------------------------------------|
D|------------------------------------------------------|
A|------------------------------------------------------|
E|------------------------------------------------------|

CONTINUE WITH TRIPLETS
LEAD:
e|------------------------------------------------------|
B|--15-------------------------------15-----------------|
G|-----13-------------------------------13--------------|
D|--------15-12~---------------------------15-12~-------|
A|------------------------------------------------------|
E|------------------------------------------------------|

e|---------------13-------------------------------------|
B|------15----------11----------------------------------|
G|---------13----------12-------------------------------|
D|---12-------15----------------------------------------|
A|------------------------------------------------------|
E|------------------------------------------------------|

RHYTHM:
e|------------------------------------------------------|
B|------------------------------------------------------|
G|------------------------------------------------------|
D|-7---------7-8---------------5---------5-6------------|
A|-5-555-555-5-5-555-555-555-5-5-555-555-5-5-555-555-555|
E|------------------------------------------------------|


Distorted chords:

e|------------------------------------------------------|
B|------------------------------------------------------|
G|------------------------------------------------------|
D|--3---2-------3---2-----------3---2---------3-2--5----|
A|--1---0-5-----1---0-5--3-2----1---0-5--3-2--1-0--3----|
E|--------3-----------3--1-0----------3--1-0------------|

LET THIS CHORD RING OUT OVER THE INTRO RIFF:

e|------------------------------------------------------|
B|------------------------------------------------------|
G|----7~-~-~-~-~----------------------------------------|
D|----7~-~-~-~-~----------------------------------------|
A|----5~-~-~-~-~----------------------------------------|
E|----5~-~-~-~-~----------------------------------------|

OUTRO RIFF:
( Same as the intro )

Lead:

e|------------------------------------------------------|
B|------------------------------------------------------|
G|------------------------------------------------------|
D|--0----0-2-3-5-3-2-0------0-2-3-5-3-2-0---------------|
A|---------------------4~-----------------3~------------|
E|------------------------------------------------------|

Rhythm:

e|--1--1--1--1---1-1-111--1--1--1---1-1-111-------------|
B|--3--3--3--3----33-332--2--2--2----22-221-------------|
G|--2--2--2--2-----2-222--2--2--2-----2-222-------------|
D|--0--0--0--0--0--0-000--0--0--0--0--0-000-------------|
A|------------------------------------------------------|
E|------------------------------------------------------|

e|------------------------------------------------------|
B|------------------------------------------------------|
G|----0-2-3-5-3-2-0-----0-2-5-3~-2-0---0~---------------|
D|------------------2~---------------4------------------|
A|------------------------------------------------------|
E|------------------------------------------------------|

e|--1--1--1---1-1-111--1--1--1---1-1-111----------------|
B|--1--1--1----11-110--0--0--0----00-003----------------|
G|--2--2--2-----2-222--2--2--2-----2-222----------------|
D|--0--0--0--0--0-000--0--0--0--0--0-000----------------|
A|------------------------------------------------------|
E|------------------------------------------------------|

Then Proceed to verse 2:

e|----1-----0---------1-----0---------------------------|
B|------3-----3---3-----3-----3---3---------------------|
G|--------2-----2---------2-----2-----------------------|
D|--0---------------0-----------------------------------|
A|------------------------------------------------------|
E|------------------------------------------------------|
REPEAT THIS 4 TIMES

e|----13-10----17-13---------13-10----17-13-------------|
B|----------10-------15------------10-------15----------|
G|----------------------14---------------------14-------|
D|--0----------------------0----------------------------|
A|------------------------------------------------------|
E|------------------------------------------------------|
THEN THIS 4 TIMES

LEAD PART:
e|--20b22-20b22-20b22-20b22-17h20p17-15-17s20s15-13-15--|
B|------------------------------------------------------|
G|------------------------------------------------------|
D|------------------------------------------------------|
A|------------------------------------------------------|
E|------------------------------------------------------|

e|--12------------b-------------13----------------------|
B|------------------------------------------------------|
G|------------------------------------------------------|
D|------------------------------------------------------|
A|------------------------------------------------------|
E|------------------------------------------------------|

PLAY OUTRO AND FADE OUT AND THAT'S IT!


9. Head Crusher \m/ (Tabbed by BlisteringDDj)


Intro:
Guitar 1:

      S   S  S  S   S  S  S   S  S   S  S  S   S  S  S   S  
E||--19p-12----18p-12----17p-12-15p-12----17p-12----18p-12-|
B||---------12--------12---------------12--------12--------|
G||--------------------------------------------------------|
D||--------------------------------------------------------|
A||--------------------------------------------------------|
E||--------------------------------------------------------|

Guitar 2:

     S  S S S  S S S  S S  S S S S S S S  
E||--------------------------------------|
B||--------------------------------------|
G||--------------------------------------|
D||--------------------------------------|
A||--------------------------------------|
E||--7p-0-0-6p-0-0-5p-0-3p-0-0-0-0-0-0-0-|

Guitar 1:

   S   S  S  S   S  S  S   S  S   S  S  S   S  S  S   S  
--19p-12----18p-12----17p-12-15p-12----17p-12----15p-12-|
---------12--------12---------------12--------12--------|
--------------------------------------------------------|
--------------------------------------------------------|
--------------------------------------------------------|
--------------------------------------------------------|

Guitar 2:

  S  S S S  S S S  S S  S S S S S S S  
--------------------------------------|
--------------------------------------|
--------------------------------------|
--------------------------------------|
--------------------------------------|
--7p-0-0-6p-0-0-5p-0-3p-0-0-0-0-0-0-0-|

Guitar 1:

   S   S  S  S   S  S  S   S  S   S  S  S   S  S  S   S  
--19p-12----18p-12----17p-12-15p-12----17p-12----18p-12-|
---------12--------12---------------12--------12--------|
--------------------------------------------------------|
--------------------------------------------------------|
--------------------------------------------------------|
--------------------------------------------------------|

Guitar 2:

  S  S S S  S S S  S S  S S S S S S S  
--------------------------------------|
--------------------------------------|
--------------------------------------|
--------------------------------------|
--------------------------------------|
--7p-0-0-6p-0-0-5p-0-3p-0-0-0-0-0-0-0-|

Guitar 1:

   S   S  S  S  S   S  S   S  S   S  S  S  E   E    
--12p-10----10-------------------------------------|
---------12----15p-12-12p-11-12p-11-10----12---L\--|
---------------------------------------12-12---L\--|
---------------------------------------------------|
---------------------------------------------------|
---------------------------------------------------|

Guitar 2:

  S  S S S  S S S  S S  S S S Q   
-----------------------------------|
-----------------------------------|  
-----------------------------------|
-----------------------------------|
------------------------------5----|
--7p-0-0-6p-0-0-5p-0-3p-0-0-0-3----|

Guitar 1:

   S   S  S  S   S  S  S   S  S   S  S  S   S  S  S   S  
--19p-12----18p-12----17p-12-15p-12----17p-12----18p-12-|
---------12--------12---------------12--------12--------|
--------------------------------------------------------|
--------------------------------------------------------|
--------------------------------------------------------|
--------------------------------------------------------|

Guitar 2:

  S  S S S  S S S  S S  S S S S S S S  
--------------------------------------|
--------------------------------------|
--------------------------------------|
--------------------------------------|
--------------------------------------|
--7p-0-0-6p-0-0-5p-0-3p-0-0-0-0-0-0-0-|

Guitar 1:

   S   S  S  S   S  S  S   S  S   S  S  S   S  S  S   S  
--19p-12----18p-12----17p-12-15p-12----17p-12----15p-12-|
---------12--------12---------------12--------12--------|
--------------------------------------------------------|
--------------------------------------------------------|
--------------------------------------------------------|
--------------------------------------------------------|

Guitar 2:

  S  S S S  S S S  S S  S S S S S S S  
--------------------------------------|
--------------------------------------|
--------------------------------------|
--------------------------------------|
--------------------------------------|
--7p-0-0-6p-0-0-5p-0-3p-0-0-0-0-0-0-0-|

Guitar 1:

   S   S  S  S   S  S  S   S  S   S  S  S  S  S   S  S  
--19p-12----18p-12----17p-12-15p-12-12----12-----------|
---------12--------12------------------15----15p-12-15-|
-------------------------------------------------------|
-------------------------------------------------------|
-------------------------------------------------------|
-------------------------------------------------------|

Guitar 2:

  S  S S S  S S S  S S  S S S S S S S  
--------------------------------------|
--------------------------------------|
--------------------------------------|
--------------------------------------|
--------------------------------------|
--7p-0-0-6p-0-0-5p-0-3p-0-0-0-0-0-0-0-|

Guitar 1:

   S   S  S  S  S   S   S  S  S   S  S  S  S  S  S  S  
------------------------------------------------------|
--15p-12-11--x-12p-11p-10----11p-10-------10----------|
--------------------------12--------12p-9----12-11p-9-|
------------------------------------------------------|
------------------------------------------------------|
------------------------------------------------------|

Guitar 2:

  S  S S S  S S S  S S  S S S Q   
-----------------------------------|
-----------------------------------|  
-----------------------------------|
-----------------------------------|
------------------------------5----|
--7p-0-0-6p-0-0-5p-0-3p-0-0-0-3----|

Verse:
Guitar 1:

                                            |----3----|     
   H.             Q        S  S S S S S S S Q    Q    Q     
------------------------|----------------------------------|
------------------------|----------------------------------|
--11~-------------L\----|----------------------------------|
------------------------|-------------------2----4----5----|
------------------------|-------------------0----2----3----|
------------------------|--7p-2-2-2-2-2-2-2----------------|

Guitar 2:

                                                        |----3----|     
  S  S S S S S S S S  S S S S S S S    S  S S S S S S S Q    Q    Q     
------------------------------------|----------------------------------|
------------------------------------|----------------------------------|
------------------------------------|----------------------------------|
------------------------------------|-------------------2----4----5----|
------------------------------------|-------------------0----2----3----|
--3p-2-2-2-2-2-2-2-5p-2-2-2-2-2-2-2-|--7p-2-2-2-2-2-2-2----------------|

Guitar 1 & 2:

  S  S S S S S S S S  S S S S S S S    S  S S S S S S S S S S S S E.   
------------------------------------|---------------------------------|
------------------------------------|---------------------------------|
------------------------------------|---------------------------------|
------------------------------------|---------------------------2-----|
------------------------------------|---------------------------0-5---|
--3p-2-2-2-2-2-2-2-5p-2-2-2-2-2-2-2-|--7p-2-2-2-2-2-2-2-3-3-0-0---3---|


                                                        |----3----|     
  S  S S S S S S S S  S S S S S S S    S  S S S S S S S Q    Q    Q     
------------------------------------|----------------------------------|
------------------------------------|----------------------------------|
------------------------------------|----------------------------------|
------------------------------------|-------------------2----4----5----|
------------------------------------|-------------------0----2----3----|
--3p-2-2-2-2-2-2-2-5p-2-2-2-2-2-2-2-|--7p-2-2-2-2-2-2-2----------------|


                                       |----3----|               
  S  S S S S S S S S  S S S S S S S    Q    Q    Q    E  Q.      
------------------------------------|---------------------------|
------------------------------------|---------------------------|
------------------------------------|---------------------------|
------------------------------------|--6----5----4----L---------|
------------------------------------|--4----3----2----L--5------|
--3p-2-2-2-2-2-2-2-5p-2-2-2-2-2-2-2-|--------------------3------|


                                                        |----3----|     
  S  S S S S S S S S  S S S S S S S    S  S S S S S S S Q    Q    Q     
------------------------------------|----------------------------------|
------------------------------------|----------------------------------|
------------------------------------|----------------------------------|
------------------------------------|-------------------2----4----5----|
------------------------------------|-------------------0----2----3----|
--3p-2-2-2-2-2-2-2-5p-2-2-2-2-2-2-2-|--7p-2-2-2-2-2-2-2----------------|


  S  S S S S S S S S  S S S S S S S    S  S S S S S S S S S S S S E.   
------------------------------------|---------------------------------|
------------------------------------|---------------------------------|
------------------------------------|---------------------------------|
------------------------------------|---------------------------2-----|
------------------------------------|---------------------------0-5---|
--3p-2-2-2-2-2-2-2-5p-2-2-2-2-2-2-2-|--7p-2-2-2-2-2-2-2-3-3-0-0---3---|


                                                        |----3----|     
  S  S S S S S S S S  S S S S S S S    S  S S S S S S S Q    Q    Q     
------------------------------------|----------------------------------|
------------------------------------|----------------------------------|
------------------------------------|----------------------------------|
------------------------------------|-------------------2----4----5----|
------------------------------------|-------------------0----2----3----|
--3p-2-2-2-2-2-2-2-5p-2-2-2-2-2-2-2-|--7p-2-2-2-2-2-2-2----------------|


  |----3----|    |----3----|                                             
  Q    Q    Q    Q    Q    Q       W                   W                 
--------------------------------|-------------------|-------------------|
--------------------------------|-------------------|-------------------|
--------------------------------|-------------------|-------------------|
-----------------5----4----2----|-------------------|--2----------------|
--5----4----2----3----2----0----|--6----------------|--0----------------|
--3----2----0-------------------|--4----------------|-------------------|

Chorus:

  H.           Q       S  S S S S  S E  S  S S S S  S E   
--------------------|------------------------------------|
--------------------|------------------------------------|
--------------------|------------------------------------|
--4-----------------|------------------------------------|
--2------------5----|------------------------------------|
---------------3----|--0h-2-2-2-2p-0----0h-2-2-2-2p-0----|


  S  S S S S  S E  S  S S S S  S E     S  S S S S  S E  S  S S S S  S E   
------------------------------------|------------------------------------|
------------------------------------|------------------------------------|
------------------------------------|------------------------------------|
------------------------------------|------------------------------------|
------------------------------------|------------------------------------|
--0h-2-2-2-2p-0----0h-2-2-2-2p-0----|--0h-2-2-2-2p-0----0h-2-2-2-2p-0----|


  S  S S S S  S E  S S Q.        S  S S S S  S E  S  S S S S  S E   
------------------------------|------------------------------------|
------------------------------|------------------------------------|
------------------------------|------------------------------------|
------------------------------|------------------------------------|
-----------------------5------|------------------------------------|
--0h-2-2-2-2p-0----0-2-3------|--0h-2-2-2-2p-0----0h-2-2-2-2p-0----|


  S  S S S S  S E  S  S S S S  S E     S  S S S S  S E  S  S S S S  S E   
------------------------------------|------------------------------------|
------------------------------------|------------------------------------|
------------------------------------|------------------------------------|
------------------------------------|------------------------------------|
------------------------------------|------------------------------------|
--0h-2-2-2-2p-0----0h-2-2-2-2p-0----|--0h-2-2-2-2p-0----0h-2-2-2-2p-0----|


  S  S S S S  S E  S S Q.      
------------------------------|
------------------------------|
------------------------------|
------------------------------|
-----------------------5------|
--0h-2-2-2-2p-0----0-2-3------|


Repeat verse and chorus.


Guitar 1:

  E  E  E  Q.     E  E     E  Q.     E  E  E  E     E  E  E  Q.     E  E   
------------------------|------------------------|------------------------|
------------------------|------------------------|------------------------|
------------------------|------------------------|------------------------|
-----------3------------|------------------------|-----------3------------|
--2--2--2--1------2--2--|--2--5------2--2--2--3--|--2--2--2--1------2--2--|
--0--0--0---------0--0--|--0--3------0--0--0--1--|--0--0--0---------0--0--|

Guitar 2:

  E  E  E  Q.     E  E     E  Q.     E  E  E  E     E  E  E  Q.     E  E   
-----0---------------0--|---------------0--------|-----0---------------0--|
--------0---------------|--0---------------0-----|--------0---------------|
------------------------|------------------------|------------------------|
-----------3------------|------------------------|-----------3------------|
--2--------1------2-----|-----5------2--------3--|--2--------1------2-----|
--0---------------0-----|-----3------0--------1--|--0---------------0-----|

Guitar 1:

  E  Q.     E  E  E  E     E  E  E  Q.     E  E     E  Q.     E  E  E  E   
------------------------|------------------------|------------------------|
------------------------|------------------------|------------------------|
------------------------|------------------------|------------------------|
------------------------|-----------3------------|------------------------|
--2--5------2--2--2--3--|--2--2--2--1------2--2--|--2--5------2--2--2--3--|
--0--3------0--0--0--1--|--0--0--0---------0--0--|--0--3------0--0--0--1--|

Guitar 2:

  E  Q.     E  E  E  E     E  E  E  Q.     E  E     E  Q.     E  E  E  E   
---------------0--------|-----0---------------0--|---------------0--------|
--0---------------0-----|--------0---------------|--0---------------0-----|
------------------------|------------------------|------------------------|
------------------------|-----------3------------|------------------------|
-----5------2--------3--|--2--------1------2-----|-----5------2--------3--|
-----3------0--------1--|--0---------------0-----|-----3------0--------1--|

Guitar 1:

  E  E  E  Q.     E  E     E  Q.     E  E  E  E     E  E  E  Q.     E  E   
------------------------|------------------------|------------------------|
------------------------|------------------------|------------------------|
------------------------|------------------------|------------------------|
-----------3------------|------------------------|-----------5------------|
--2--2--2--1------2--2--|--2--5------2--2--2--3--|--4--4--4--3------4--4--|
--0--0--0---------0--0--|--0--3------0--0--0--1--|--2--2--2---------2--2--|

Guitar 2:

  E  E  E  Q.     E  E     E  Q.     E  E  E  E     E  E  E  Q.     E  E   
-----0---------------0--|---------------0--------|-----2---------------2--|
--------0---------------|--0---------------0-----|--------2---------------|
------------------------|------------------------|------------------------|
-----------3------------|------------------------|-----------5------------|
--2--------1------2-----|-----5------2--------3--|--4--------3------4-----|
--0---------------0-----|-----3------0--------1--|--2---------------2-----|

Guitar 1:

  E  Q.     E  E  E  E     E  E  E  Q.     E  E     E  Q.     E  E  E  E   
------------------------|------------------------|------------------------|
------------------------|------------------------|------------------------|
------------------------|------------------------|------------------------|
------------------------|-----------5------------|------------------------|
--4--4------4--4--4--5--|--4--4--4--3------4--4--|--4--4------4--4--4--5--|
--2--5------2--2--2--3--|--2--2--2---------2--2--|--2--5------2--2--2--3--|

Guitar 2:

  E  Q.     E  E  E  E     E  E  E  Q.     E  E     E  Q.     E  E  E  E   
---------------2--------|-----2---------------2--|---------------2--------|
--2---------------2-----|--------2---------------|--2---------------2-----|
------------------------|------------------------|------------------------|
------------------------|-----------5------------|------------------------|
-----4------4--------5--|--4--------3------4-----|-----4------4--------5--|
-----5------2--------3--|--2---------------2-----|-----5------2--------3--|

Guitar 1:

  E  E  E  Q.     E  E     E  Q.     E  E  E  E     E  E  E  Q.     E  E   
------------------------|------------------------|------------------------|
------------------------|------------------------|------------------------|
------------------------|------------------------|------------------------|
-----------5------------|------------------------|-----------5------------|
--4--4--4--3------4--4--|--4--4------4--4--4--5--|--4--4--4--3------4--4--|
--2--2--2---------2--2--|--2--5------2--2--2--3--|--2--2--2---------2--2--|

Guitar 2:

  E  E  E  Q.     E  E     E  Q.     E  E  E  E     E  E  E  Q.     E  E   
-----2---------------2--|---------------2--------|-----2---------------2--|
--------2---------------|--2---------------2-----|--------2---------------|
------------------------|------------------------|------------------------|
-----------5------------|------------------------|-----------5------------|
--4--------3------4-----|-----4------4--------5--|--4--------3------4-----|
--2---------------2-----|-----5------2--------3--|--2---------------2-----|

Guitar 1:

  E  Q.     E  E  E  E     E  E  E  E  E  E  E  E   
------------------------|--------------------------|
------------------------|--------------------------|
------------------------|--------------------------|
------------------------|--------------------------|
--4--4------4--4--4--5--|--2--2--2--2--2--2--2--2--|
--2--5------2--2--2--3--|--0--0--0--0--0--0--0--0--|

Guitar 2:

  E  Q.     E  E  E  E     E  E  E  E  E  E  E  E   
---------------2--------|--------------------------|
--2---------------2-----|--------------------------|
------------------------|--------------------------|
------------------------|--------------------------|
-----4------4--------5--|--2--2--2--2--2--2--2--2--|
-----5------2--------3--|--0--0--0--0--0--0--0--0--|

Guitar 1:

  E  E  E  E  E  E  E  E     E  E  E  E  E  E  E  E   
--------------------------|--------------------------|
--------------------------|--------------------------|
--------------------------|--------------------------|
--------------------------|--------------------------|
--2--2--2--2--2--2--2--2--|--2--2--2--2--2--2--2--2--|
--0--0--0--0--0--0--0--0--|--0--0--0--0--0--0--0--0--|

Guitar 2:

  E  E  E  E  E  E  E  E     E  E  E  E  E  E  E  E   
--------------------------|--------------------------|
--------------------------|--------------------------|
--------------------------|--------------------------|
--------------------------|--------------------------|
--2--2--2--2--2--2--2--2--|--2--2--2--2--2--2--2--2--|
--0--0--0--0--0--0--0--0--|--0--0--0--0--0--0--0--0--|

Guitar 1:

  E  E  E  E  E  E  E  E     E  E  E  E  E  E  E  E   
--------------------------|--------------------------|
--------------------------|--------------------------|
--------------------------|--------------------------|
--------------------------|--------9--------3--------|
--2--2--2--2--2--2--2--2--|--------7--------1--------|
--0--0--0--0--0--0--0--0--|--0--0-----0--0-----0--0--|

Guitar 2:

  E  E  E  E  E  E  E  E     E  E  E  E  E  E  E  E   
--------------------------|--------------------------|
--------------------------|--------------------------|
--------------------------|--------------------------|
--------------------------|--------------------------|
--2--2--2--2--2--2--2--2--|--2--2--2--2--2--2--2--2--|
--0--0--0--0--0--0--0--0--|--0--0--0--0--0--0--0--0--|

Guitar 1:

  E  E  E  E  E  E   E   E     E  E  E  E  E  E  E  E   
----------------------------|--------------------------|
----------------------------|--------------------------|
----------------------------|--------------------------|
----------------------------|--------------------------|
--2--------5-----7S--8S--7--|--2--2--2--2--2--2--2--2--|
--0--0--0--3--0--5S--6S--5--|--0--0--0--0--0--0--0--0--|

Guitar 2:

  E  E  E  E  E  E  E  E     E  E  E  E  E  E  E  E   
--------------------------|--------------------------|
--------------------------|--------------------------|
--------------------------|--------------------------|
--------------------------|--------------------------|
--2--2--2--2--2--2--2--2--|--2--2--2--2--2--2--2--2--|
--0--0--0--0--0--0--0--0--|--0--0--0--0--0--0--0--0--|

Guitar 1:

  E  E  E  E  E  E  E  E     E  E  E  E  E  E  E  E   
--------------------------|--------------------------|
--------------------------|--------------------------|
--------------------------|--------------------------|
--------------------------|--------9--------3--------|
--2--2--2--2--2--2--2--2--|--------7--------1--------|
--0--0--0--0--0--0--0--0--|--0--0-----0--0-----0--0--|

Guitar 2:

  E  E  E  E  E  E  E  E     E  E  E  E  E  E  E  E   
--------------------------|--------------------------|
--------------------------|--------------------------|
--------------------------|--------------------------|
--------------------------|--------------------------|
--2--2--2--2--2--2--2--2--|--2--2--2--2--2--2--2--2--|
--0--0--0--0--0--0--0--0--|--0--0--0--0--0--0--0--0--|

Guitar 1:

  E  E  E  E  E  E   E   E     E  E  E  E  E  E  E  E   
----------------------------|--------------------------|
----------------------------|--------------------------|
----------------------------|--------------------------|
----------------------------|--------------------------|
--2--------5-----7S--8S--7--|--2--2--2--2--2--2--2--2--|
--0--0--0--3--0--5S--6S--5--|--0--0--0--0--0--0--0--0--|

Guitar 2:

  E  E  E  E  E  E  E  E     E  E  E  E  E  E  E  E   
--------------------------|--------------------------|
--------------------------|--------------------------|
--------------------------|--------------------------|
--------------------------|--------------------------|
--2--2--2--2--2--2--2--2--|--2--2--2--2--2--2--2--2--|
--0--0--0--0--0--0--0--0--|--0--0--0--0--0--0--0--0--|

Guitar 1 & 2:

  E  E  E  E  E  E  E  E     E  E  E  E  E  E  E  E   
--------------------------|--------------------------|
--------------------------|--------------------------|
--------------------------|--------------------------|
--------------------------|--------9--------3--------|
--2--2--2--2--2--2--2--2--|--------7--------1--------|
--0--0--0--0--0--0--0--0--|--0--0-----0--0-----0--0--|


  E  E  E  E  E  E   E   E     E  E  E  E  E  E  E  E   
----------------------------|--------------------------|
----------------------------|--------------------------|
----------------------------|--------------------------|
----------------------------|--------9--------3--------|
--2--------5-----7S--8S--7--|--------7--------1--------|
--0--0--0--3--0--5S--6S--5--|--0--0-----0--0-----0--0--|


  E  E  E  E  E  E   E   E     E  E  E  E  E  E  E  E   
----------------------------|--------------------------|
----------------------------|--------------------------|
----------------------------|--------------------------|
----------------------------|--------9--------3--------|
--2--------5-----7S--8S--7--|--------7--------1--------|
--0--0--0--3--0--5S--6S--5--|--0--0-----0--0-----0--0--|


  E  E  E  E  E  E   E   E     E  E  E  E  E  E  E  E   
----------------------------|--------------------------|
----------------------------|--------------------------|
----------------------------|--------------------------|
----------------------------|--------------------------|
--2--------5-----7S--8S--7--|--2--2--2--2--2--2--2--2--|
--0--0--0--3--0--5S--6S--5--|--0--0--0--0--0--0--0--0--|


  E  E  E  E  E  E  E  E     E  S S E  S S S S S S E  E   
--------------------------|------------------------------|
--------------------------|------------------------------|
--------------------------|------------------------------|
--------------------------|--9---------------------9--8--|
--2--2--2--2--2--2--2--2--|--7---------------------7--6--|
--0--0--0--0--0--0--0--0--|-----0-0-0--0-0-0-0-0-0-------|


  E  S S E  S S S S S S E  E     E  S S E  S S S S S S E  E   
------------------------------|------------------------------|
------------------------------|------------------------------|
------------------------------|------------------------------|
--L---------------------8--7--|--L---------------------7--6--|
--L---------------------6--5--|--L---------------------5--4--|
-----0-0-0--0-0-0-0-0-0-------|-----0-0-0--0-0-0-0-0-0-------|


  E  S S E  S S S S S S E  E     E  S S E  S S S S S S E  E   
------------------------------|------------------------------|
------------------------------|------------------------------|
------------------------------|------------------------------|
--L---------------------6--5--|--L---------------------5--4--|
--L---------------------4--3--|--L---------------------3--2--|
-----0-0-0--0-0-0-0-0-0-------|-----0-0-0--0-0-0-0-0-0-------|


  E  S S E  S S E  E  Q       E  E   E  Q.     E  E    
---------------------------|-----3p--0------------3p--|
---------------------------|--------------------------|
---------------------------|--------------------------|
--L-------------3--2-------|------------3-------------|
--L-------------1--0--5----|--2---------1------2------|
-----0-0-0--0-0-------3----|--0----------------0------|


  E  Q.     E  E   E  E     E  E   E  Q.     E  E    
--0------------3p--0-----|-----3p--0------------3p--|
-------------------------|--------------------------|
-------------------------|--------------------------|
-------------------------|------------3-------------|
-----5------2---------3--|--2---------1------2------|
-----3------0---------1--|--0----------------0------|


  E  Q.     E  E   E  E     E  S S E  S S S S S S E  E   
--0------------3p--0-----|------------------------------|
-------------------------|------------------------------|
-------------------------|------------------------------|
-------------------------|--9---------------------9--8--|
-----5------2---------3--|--7---------------------7--6--|
-----3------0---------1--|-----0-0-0--0-0-0-0-0-0-------|


  E  S S E  S S S S S S E  E     E  S S E  S S S S S S E  E   
------------------------------|------------------------------|
------------------------------|------------------------------|
------------------------------|------------------------------|
--L---------------------8--7--|--L---------------------7--6--|
--L---------------------6--5--|--L---------------------5--4--|
-----0-0-0--0-0-0-0-0-0-------|-----0-0-0--0-0-0-0-0-0-------|


  E  S S E  S S S S S S E  E     E  S S E  S S S S S S E  E   
------------------------------|------------------------------|
------------------------------|------------------------------|
------------------------------|------------------------------|
--L---------------------6--5--|--L---------------------5--4--|
--L---------------------4--3--|--L---------------------3--2--|
-----0-0-0--0-0-0-0-0-0-------|-----0-0-0--0-0-0-0-0-0-------|


  E  S S E  S S E  E  Q       E  E  E  E  E  E  E  E   
---------------------------|--------------------------|
---------------------------|--------------------------|
---------------------------|--------------------------|
--L-------------3--2-------|--------9--------3--------|
--L-------------1--0--5----|--------7--------1--------|
-----0-0-0--0-0-------3----|--0--0-----0--0-----0--0--|

Solo:
Guitar 1:

  E  E  E  E  E  E  E  E     S S S S S S E  S S S S  E  S S  
--------------------------|---------------------------------|
--------------------------|---------------------------------|
--------------------------|---------------------------------|
--------------------------|--------------9----------10------|
--2--------5-----7--8--7--|--------------7-----------8------|
--0--0--0--3--0--5--6--5--|--0-0-0-0-0-0----0-0-0-0-----0-0-|


  S S E  S S S S E  E  E  E     S S S S S S S  S S S S S S  S S S  
-----------------------------|------------------------------------|
-----------------------------|------------------------------------|
-----------------------------|------------------------------------|
------7----------7--6--------|------------------------------------|
------5----------5--4--6--5--|--------------5h-7---------8p-5-----|
--0-0----0-0-0-0-------4--3--|--0-0-0-0-0-0------0-0-0-0------0-0-|


  S S S  S S S S S S S S S S S S S    S S S S S S E  S S S S  E  S S  
-----------------------------------|---------------------------------|
-----------------------------------|---------------------------------|
-----------------------------------|---------------------------------|
-----------------------------------|--------------9----------10------|
------5h-7-----------------8-8-8-8-|--------------7-----------8------|
--0-0------0-0-0-0-6-6-6-6---------|--0-0-0-0-0-0----0-0-0-0-----0-0-|


  S S E  S S S S E  E  E  E     S S S S S S S  S S S S S S  S S S  
-----------------------------|------------------------------------|
-----------------------------|------------------------------------|
-----------------------------|------------------------------------|
------7----------7--6--------|------------------------------------|
------5----------5--4--6--5--|--------------5h-7---------8p-5-----|
--0-0----0-0-0-0-------4--3--|--0-0-0-0-0-0------0-0-0-0------0-0-|


  S S S  S S S S S S S S S S S S S    S S S S S S E  S S S S  E  S S  
-----------------------------------|---------------------------------|
-----------------------------------|---------------------------------|
-----------------------------------|---------------------------------|
-----------------------------------|--------------9----------10------|
------5h-7-----------------8-8-8-8-|--------------7-----------8------|
--0-0------0-0-0-0-6-6-6-6---------|--0-0-0-0-0-0----0-0-0-0-----0-0-|


  S S E  S S S S E  E  E  E     S S S S S S S  S S S S S S  S S S  
-----------------------------|------------------------------------|
-----------------------------|------------------------------------|
-----------------------------|------------------------------------|
------7----------7--6--------|------------------------------------|
------5----------5--4--6--5--|--------------5h-7---------8p-5-----|
--0-0----0-0-0-0-------4--3--|--0-0-0-0-0-0------0-0-0-0------0-0-|


  S S S  S S S S S S S S S S S S S    S S S S S S E  S S S S  E  S S  
-----------------------------------|---------------------------------|
-----------------------------------|---------------------------------|
-----------------------------------|---------------------------------|
-----------------------------------|--------------9----------10------|
------5h-7-----------------8-8-8-8-|--------------7-----------8------|
--0-0------0-0-0-0-6-6-6-6---------|--0-0-0-0-0-0----0-0-0-0-----0-0-|


  S S E  S S S S E  E  E  E     S S S S S S S  S S S S S S  S S S  
-----------------------------|------------------------------------|
-----------------------------|------------------------------------|
-----------------------------|------------------------------------|
------7----------7--6--------|------------------------------------|
------5----------5--4--6--5--|--------------5h-7---------8p-5-----|
--0-0----0-0-0-0-------4--3--|--0-0-0-0-0-0------0-0-0-0------0-0-|


  S S S  S S S S S Q    Q       Q    H.             
-----------------------------|--------------------||
-----------------------------|--------------------||
-----------------------------|--------------------||
-------------------3---------|--------------------||
------5h-7---------1----3----|--2-----------------||
--0-0------0-0-0-0------1----|--0-----------------||
 


10. How The Story Ends (Tabbed by Big Bozz)


Riff 1
e|---------------------------|
B|---------------------------|
G|---------------------------|
D|------4------------5-------|
A|-2----2-------2----3-------|
E|-0--0----0-00-0--0----0-00-|
      *    * **    *    * **
e|-------------------------------|
B|-------------------------------|
G|-------------------------------|
D|------4-------2----------------|
A|-2----2---2---0---5-4----------|
E|-0--0---0-0-0---0-3-2--2-2-2-2-|
      *   *   *   *      * * * *
e|----------------------------|
B|----------------------------|
G|----------------------------|
D|------4-------------5-------|
A|-2----2-------2-2-2-3-------|
E|-0--0----0-00-0-0-0----0-00-|
      *    * ** * * *    * **
1st ending:
e|-------------------------------|
B|-------------------------------|
G|-------------------------------|
D|------4-------2----------------|
A|-2----2---2---0---5-4----------|
E|-0--0---0-0-0---0-3-2--2-2-2-2-|
      *   *   *   *      * * * *

2nd ending:
e|---------------------------|
B|---------------------------|
G|---------------------------|
D|------4-------2------------|
A|-2----2---2---0---5-4------|
E|-0--0---0-0-0---0-3-2--2-2-|
      *   *   *   *      * *


Riff 2
e|---------------------------------------|
B|---------------------------------------|
G|---------------------------------------|
D|---------------------------------------|
A|-5h7--5h7------2----5h7--5h7------2----|
E|----------0000-0--0----------0000-0--0-|
            ****               ****
e|---------------------------------------|
B|---------------------------------------|
G|---------------------------------------|
D|---------------------------------------|
A|-5h7--5h7------2----5h7--5h7------2----|
E|----------0000-0--0----------0000-0--0-|
            ****               ****
e|---------------------------------------|
B|---------------------------------------|
G|---------------------------------------|
D|---------------------------------------|
A|-2h3--2h3------5--5-3h5--3h5------7--7-|
E|----------0000-3--3----------0000-5--5-|
            ****               ****
e|----------------------------------------|
B|----------------------------------------|
G|----------------------------------------|
D|----------------------------------------|
A|-5h7--5h7------2----5h7--5h7----9--8--7-|
E|----------0000-0--0----------00-7--6--5-|
            ****               **


Riff 3
Guitar 1
e|--------------------------------|
B|--------------------------------|
G|--------------------------------|
D|--------------------------------|
A|-7------2----5h7--5h7------2----|
E|---0000-0--0----------0000-0--0-|
     ****               ****
e|---------------------------------------|
B|---------------------------------------|
G|---------------------------------------|
D|---------------------------------------|
A|-5h7--5h7------2----5h7--5h7------2----|
E|----------0000-0--0----------0000-0--0-|
            ****               ****
e|---------------------------------------|
B|---------------------------------------|
G|---------------------------------------|
D|---------------------------------------|
A|-2h3--2h3------5--5-3h5--3h5------7--7-|
E|----------0000-3--3----------0000-5--5-|
            ****               ****
e|----------------------------------------|
B|----------------------------------------|
G|----------------------------------------|
D|----------------------------------------|
A|-5h7--5h7------2----5h7--5h7----6--5--4-|
E|----------0000-0--0----------00-7--6--5-|
            ****               **

Guitar 2
e|-----------------------------------|
B|-----------------------------------|
G|-----------------------------------|
D|--------------------9--------------|
A|-10------2----9h10----10------2----|
E|----0000-0--0------------0000-0--0-|
      ****                 ****
e|-------------------------------------------|
B|-------------------------------------------|
G|-------------------------------------------|
D|-------9--------------------9--------------|
A|-9h10----10------2----9h10----10------2----|
E|------------0000-0--0------------0000-0--0-|
              ****                 ****
e|---------------------------------------|
B|---------------------------------------|
G|---------------------------------------|
D|---------------------------------------|
A|-5h7--5h7------5--5-7h9--7h9------7--7-|
E|----------0000-3--3----------0000-5--5-|
            ****               ****
e|--------------------------------------------|
B|--------------------------------------------|
G|--------------------------------------------|
D|-------9--------------------9---------------|
A|-9h10----10------2----9h10----10----6--5--4-|
E|------------0000-0--0------------00-7--6--5-|
              ****                 **


Riff 4
Guitar 1
e|-----------------------------------------------------|
B|-----------------------------------------------------|
G|-----------------------------------------------------|
D|------------4-5--------------------------------------|
A|-2----------2-3--3-3-3-3-5-5----------5-3----------5-|
E|-0--0-0-0-0--------------3-2--2-2-2-2-2-1--1-1-1-1-3-|
      * * * *      * * * *      * * * *      * * * *
e|---------------------------------------------------|
B|---------------------------------------------------|
G|---------------------------------------------------|
D|------------4-5------------------------------------|
A|-2----------2-3--3-3-3-3-5-5----------5-3----------|
E|-0--0-0-0-0--------------3-2--2-2-2-2-2-1--1-1-1-1-|
      * * * *      * * * *      * * * *      * * * *

Guitar 2 (Let e/B string notes ring over preceding chord)
e|----0---------0---------0---------0------|
B|-------0---------0---------0---------0---|
G|-----------------------------------------|
D|---------4-5-----------------------------|
A|-2-------2-3-------5-5-------5-3-------5-|
E|-0-----------------3-2-------2-1-------3-|

e|----0---------0---------0---------0----|
B|-------0---------0---------0---------0-|
G|---------------------------------------|
D|---------4-5---------------------------|
A|-2-------2-3-------5-5-------5-3-------|
E|-0-----------------3-2-------2-1-------|



Riff 5
e|---------------------------------------|
B|---------------------------------------|
G|---------------------------------------|
D|---------------------------------------|
A|-5h7--5h7-----------5h7--5h7-----------|
E|----------0-0-0-0-0----------0-0-0-0-0-|
            * * * * *          * * * * *
e|---------------------------------------|
B|---------------------------------------|
G|---------------------------------------|
D|---------------------------------------|
A|-5h7--5h7-----------5h7--5h7---9--8--7-|
E|----------0-0-0-0-0----------0-7--6--5-|
            * * * * *          *
e|--------------------------------|
B|--------------------------------|
G|--------------------------------|
D|--------------------------------|
A|-7-----------5h7--5h7-----------|
E|---0-0-0-0-0----------0-0-0-0-0-|
     * * * * *          * * * * *
e|---------------------------------------|
B|---------------------------------------|
G|---------------------------------------|
D|---------------------------------------|
A|-5h7--5h7-----------5h7--5h7---4--5--6-|
E|----------0-0-0-0-0----------0-4--5--6-|
            * * * * *          *


Play Riff 2  Skip the first three notes.
Play Riff 3


Riff 4a
Guitar 1
e|-----------------------------------------------------|
B|-----------------------------------------------------|
G|-----------------------------------------------------|
D|------------4-5--------------------------------------|
A|-2----------2-3--3-3-3-3-5-5----------5-3----------5-|
E|-0--0-0-0-0--------------3-2--2-2-2-2-2-1--1-1-1-1-3-|
      * * * *      * * * *      * * * *      * * * *

Guitar 2
e|----0---------0---------0---------0------|
B|-------0---------0---------0---------0---|
G|-----------------------------------------|
D|---------4-5-----------------------------|
A|-2-------2-3-------5-5-------5-3-------5-|
E|-0-----------------3-2-------2-1-------3-|



Riff 6 (Solo Rhythm)
e|-----------------------------|
B|-----------0-----------------|
G|-----0-----------0-------0---|
D|---2-----4-----2-------1---1-|
A|---------------------2-------|
E|-0-----0-----0-----0---------|
   * *   * *   * *   * *
e|-----------------------------|
B|-----------0-----------------|
G|-----0-----------0-------0---|
D|---2-----4-----2-------2---2-|
A|---------------------3-------|
E|-0-----0-----0-----0---------|
   * *   * *   * *   * *
e|-----------------------------|
B|-----------0-----------------|
G|-----0-----------0-------0---|
D|---2-----4-----2-------1---1-|
A|---------------------2-------|
E|-0-----0-----0-----0---------|
   * *   * *   * *   * *

Guitar 1
e|---------------------------------|
B|---------------------------------|
G|-----0-----0-----0-----0-------0-|
D|---2-----4-----2-----0-----0-----|
A|-3-----5-----3-------------------|
E|-------------------3-----2---1---|
   * *   * *   * *   * *   *   *
Guitar 2
e|-------------------------|
B|-----0-----0---1-0-------|
G|---0-----2------------2--|
D|-2-----4-----2-----------|
A|-------------------------|
E|-------------------------|
   * *   * *   *

Solo (Acoustic, Mustaine)
e|------------------------------------------|
B|-------12---------------------------------|
G|-12h14------------------------------------|
D|------------------------------------------|
A|-----------10-10p9-12p10----10p9-12p10----|
E|-------------------------11------------0--|

e|----------------------------|
B|-12h13p12--------------12\--|
G|-----------14--12--14-------|
D|----------------------------|
A|----------------------------|
E|----------------------------|

e|-----2----5--3--2--3--5-----------------------|
B|---1------------------------------------------|
G|-2--------------------------------11-------12-|
D|-------------------------------------13-10-h.-|
A|----------------------------------------------|
E|----------------------------------------------|

End Solo


Riff 7 (Solo Rhythm)
e|-------------------------------|
B|-------------------------------|
G|-------------------------------|
D|-------------------------------|
A|-7-6-7-------------------------|
E|-------0-0-7-0-8~--7-8-0-0-3-0-|
         * *   *         * *   *
e|---------------------------------|
B|---------------------------------|
G|---------------------------------|
D|---------------------------------|
A|-------------------------6~------|
E|-2~--1-2-0-0-8-0-7~--6-7-----8-7-|
           * *   *
e|---------------------------------|
B|---------------------------------|
G|---------------------------------|
D|---------------------------------|
A|-7~--6-7-------------------------|
E|---------0-0-7-0-8~--7-8-0-0-3-0-|
           * *   *         * *   *
e|----------------------------------|
B|----------------------------------|
G|----------------------------------|
D|----------------------------------|
A|-----------------9----------------|
E|-2~--1-2-0-0-8-0-7--7-7-7-7-7-7-7-|
           * *   *    * * * * * * *
e|--------------------------------|
B|--------------------------------|
G|--------------------------------|
D|-9-8-9--------------------------|
A|-7-6-7-----9---10--9-10-----5---|
E|-------0-0-7-0--8--7--8-0-0-3-0-|
         * *   *          * *   *
e|--------------------------------|
B|--------------------------------|
G|--------------------------------|
D|------------------------8-------|
A|-4--3-4-----10---9--8-9-6--10-9-|
E|-2--1-2-0-0--8-0-7--6-7-----8-7-|
          * *    *
e|--------------------------------|
B|--------------------------------|
G|--------------------------------|
D|-9-8-9--------------------------|
A|-7-6-7-----9---10--9-10-----5---|
E|-------0-0-7-0--8--7--8-0-0-3-0-|
         * *   *          * *   *
e|--------------------------|
B|--------------------------|
G|--------------------------|
D|--------------------------|
A|-4--3-4-----10---9--(9)\--|
E|-2--1-2-0-0--8-0-7--(7)\--|
          * *    *


Solo (Broderick) 147  51
e|-----------------15-------------------------------|
B|-[16]17r16b17~------17-----[13]14r13~----------13-|
G|-----------------------15----------------12-15----|
D|--------------------------------------------------|
A|--------------------------------------------------|
E|--------------------------------------------------|

e|----------------------|
B|-13b14~---14----------|
G|-------------15-11----|
D|-------------------14-|
A|----------------------|
E|----------------------|

e|-14p11------------11h14t17p14/17p14------------14h17t20p17/-|
B|------12--------12-----------------16--------16-------------|
G|--------14-11h14---------------------17-14h17---------------|
D|------------------------------------------------------------|
A|------------------------------------------------------------|
E|------------------------------------------------------------|

e|-19~--15-19----19----19----------15-18----15-------|
B|------------17-------------------------17-------17-|
G|------------------16----15~----0-------------17----|
D|---------------------------------------------------|
A|---------------------------------------------------|
E|---------------------------------------------------|
                                 *
e|-------------------------|
B|-------------------------|
G|-15----------------------|
D|----16----------------16-|
A|-------16----------16----|
E|----------18-14-18-------|

e|----------------------------------------------14h17/-|
B|-------------------------------------------16--------|
G|-------------------------14h16p14----14h16-----------|
D|----------------------16----------16-----------------|
A|----14-18p14----14h18--------------------------------|
E|-17----------17--------------------------------------|

e|-19p15-------15----------------------------------|
B|-------17-------17-------17----------------------|
G|----------16-------16-------16-------16----------|
D|----------------------17-------17p14----17p14h16-|
A|-------------------------------------------------|
E|-------------------------------------------------|

e|-------------------------------------------------|
B|-------------------------------------------------|
G|-17p12-------12-------------------------------12-|
D|-------14-------14-------14----------------14----|
A|----------15-------15-------15----------15-------|
E|----------------------15-------15-12h15----------|

e|-------------------------------------12h14-12p9-|
B|----------------------------------14------------|
G|-15p11----------------------11h15---------------|
D|-------14p11----------11h14---------------------|
A|-------------13----13---------------------------|
E|----------------14------------------------------|

e|-14p11------11-14p11--11h14h17p14p11------11h14h17t20p17p14-|
B|------12--12--------12--------------13--13------------------|
G|--------14----------------------------14--------------------|
D|------------------------------------------------------------|
A|------------------------------------------------------------|
E|------------------------------------------------------------|

e|-19p15--------------------15h19t24p19p15-|
B|------17----------------17---------------|
G|--------16------------16-----------------|
D|----------17--------17-------------------|
A|------------19-14h19---------------------|
E|-----------------------------------------|

e|----15h19t24p19p15h19-t22p19p15h19-|
B|-17--------------------------------|
G|-----------------------------------|
D|-----------------------------------|
A|-----------------------------------|
E|-----------------------------------|

e|-20p15---------------------------------------|
B|------17----------------17----------------17-|
G|--------17------------17--17------------17---|
D|----------17--------17------17--------17-----|
A|------------19-15h19----------19-15h19-------|
E|---------------------------------------------|

e|-20p15----19p15----|
B|-------17-------17-|
G|-------------------|
D|-------------------|
A|-------------------|
E|-------------------|

e|-18p14--------------------14-18p14--14-----14p12-------|
B|------14----------------14--------14-----14-----14--14-|
G|--------15------------15---------------15---------15---|
D|----------16--------16---------------------------------|
A|------------16-13h16-----------------------------------|
E|-------------------------------------------------------|

e|-12-14-15-12/15-17p15-|
B|----------------------|
G|----------------------|
D|----------------------|
A|----------------------|
E|----------------------|

e|-19-17-15--------------------------------------------------|
B|----------19-17-15-----------------------------------------|
G|-------------------17-16-14--------------------------------|
D|----------------------------17-16-14-----------------------|
A|-------------------------------------17-15-14--------------|
E|----------------------------------------------17-15-14-12~-|

End Solo


Riff 8
e|---------------------------------|
B|---------------------------------|
G|---------------------------------|
D|---------------------------------|
A|--------2---------------3--------|
E|-200000----202320200000---202320-|
   ******    ************   ******
e|------------------------------|
B|------------------------------|
G|------------------------------|
D|------------------------------|
A|--------2-------------5--4--3-|
E|-200000----2023202000-3--2--1-|
   ******    **********


Play Riff 4a


Riff 9                        x3
e|-----------------------------|
B|-----------------------------|
G|------/5----4----------------|
D|-2----/5----4----5----4-5-7--|
A|-2---------------5----4-5-7--|
E|-----------------------------|
                        * *
e|-----------------------------|
B|-----------------------------|
G|------/5----4----------------|
D|-2----/5----4----5----4-5-3--|
A|-2---------------5----4-5-3--|
E|-----------------------------|
                        * *


Play Riff 1

Final time play:
e|----------------------------------|
B|----------------------------------|
G|----------------------------------|
D|------4-------2-------------------|
A|-2----2---2---0---5-4--4-5---4-2--|
E|-0--0---0-0-0---0-3-2--2-3-0-2-0--|
      *   *   *   *          *


11. The Right to Go Insane (Tabbed by Big Bozz)


Intro
e|----------------------------------|
B|----------------------------------|
G|----------------------------------|
D|-------------------------3-5------|
A|-5----6--8---3-5----3-5-------3-5-|
E|-3----4--6---1-3------------------|

e|---------------------|
B|---------------------|
G|---------------------|
D|---------------------|
A|-6----5-4-3--------3-|
E|-4-----------6-4~--1-|

e|----------------------------------|
B|----------------------------------|
G|----------------------------------|
D|-------------------------3-5------|
A|-5----6--8---3-5----3-5-------3-5-|
E|-3----4--6---1-3------------------|

e|----------------|
B|----------------|
G|----------------|
D|----------------|
A|-6----8--8--8\--|
E|-4----6--6--6\--|


Riff 1 (Slowly stop palm muting as you get to Riff 2)
e|---------------------------------|
B|---------------------------------|
G|---------------------------------|
D|---------------------------------|
A|---------------------------------|
E|-3-0-3-2-1-0-3-0-3-2-1-0-3-2-1-0-|
   * * * * * * * * * * * * * * * *


Riff 2
e|-------------------------------|
B|-------------------------------|
G|-------------3--------------5--|
D|-------------3--------------5--|
A|---------3h5------------5h7----|
E|-4-4-4-4--------6-6-6-6--------|
   * * * *        * * * *
e|---------------------------------|
B|---------------------------------|
G|---------------------------------|
D|---------------------------------|
A|---------------------------------|
E|-3-0-3-2-1-0-3-0-3-2-1-0-3-2-1-0-|
   * * * * * * * * * * * * * * * *

Repeat the above, then:
Guitar 1
e|---------------------------------|
B|---------------------------------|
G|---------------------------------|
D|---------------------------------|
A|---------------------------------|
E|-3-0-3-2-1-0-3-0-3-2-1-0-3-2-1-0-|
   * * * * * * * * * * * * * * * *
Guitar 2
e|--------------------------------------|
B|--------------------------------------|
G|--------------------------------------|
D|--------------------------------------|
A|-10-7-10-9-8-7-10-7-10-9-8-7-10-9-8-7-|
E|--------------------------------------|


Riff 3
Guitar 1
e|----------------------------------------------------|
B|----------------------------------------------------|
G|----------------------------------------------------|
D|----------7-8~--------7-8~--------7-8~--------7-8~--|
A|-10-10-10-------8-8-8-------6-6-6-------5-5-5-------|
E|----------------------------------------------------|
    *  *  *       * * *       * * *       * * *

Guitar 2
e|-------------------------------------------------|
B|-------------------------------------------------|
G|-------5-7~--------5-7~--------5-7~--------5-7~--|
D|-5-5-5-------------------------------------------|
A|-------------8-8-8-------6-6-6-------5-5-5-------|
E|-------------------------------------------------|
   * * *       * * *       * * *       * * *

Guitar 3 comes in later
e|-------------------------------------------------|
B|-------6-8~--------6-8~--------6-8~--------6-8~--|
G|-------------------------------------------------|
D|-5-5-5-------------------------------------------|
A|-------------8-8-8-------6-6-6-------5-5-5-------|
E|-------------------------------------------------|
   * * *       * * *       * * *       * * *


Riff 4
e|----------------------------------|
B|----------------------------------|
G|----------------------------------|
D|----------------------------------|
A|-3-5----6--8----3-5----6--8--9--3-|
E|-3-5----6--8----3-5----6--8--9--1-|

e|----------------------------------|
B|----------------------------------|
G|----------------------------------|
D|-------------------------3-5------|
A|-5----6--8---3-5----3-5-------3-5-|
E|-3----4--6---1-3------------------|

e|----------------|
B|----------------|
G|----------------|
D|----------------|
A|-6----8--8--8\--|
E|-4----6--6--6\--|

Play Riff 1
Play Riff 2
Play Riff 3
Play Riff 4


Lead into next section:
e|------------------------|
B|------------------------|
G|------------------------|
D|------------------------|
A|-5--4--3--2-------------|
E|-3--2--1--0-0-0-0-0-0-0-|
              * * * * * *
e|-------------------------------------------------|
B|-------------------------------------------------|
G|-------------------------------------------------|
D|-------------------------------------------------|
A|-------------------------------------------------|
E|-0-0-0-0-0-0-0-0-0-0-0-0-0-0-0-0-0-0-0-0-0-0-0-0-|
   * * * * * * * * * *



Riff 5 (Solo Rhythm)
e|-------------------------------|
B|-------------------------------|
G|-------------------------------|
D|-------4---5-----------4---5---|
A|-------2---3-----------2---3---|
E|-0-0-0---0---0-0-0-0-0---0---0-|
   * * *   *   * * * * *   *   *
e|---------------------------------|
B|---------------------------------|
G|---------------------------------|
D|---------------------------------|
A|-4/5-5-5-4/5-5-5-4/5-5-5-4-5-4-3-|
E|-2/3-3-3-2/3-3-3-2/3-3-3-2-3-2-1-|
       * *     * *     * * * * * *

Repeat the following for the rest of the riff:
e|--------------------------------|
B|--------------------------------|
G|--------------------------------|
D|--------4---5-----------4---5---|
A|-2------2---3-----------2---3---|
E|-0--0-0---0---0-0-0-0-0---0---0-|
      * *   *   * * * * *   *   *
e|---------------------------------|
B|---------------------------------|
G|---------------------------------|
D|---------------------------------|
A|-4/5-5-5-4/5-5-5-4/5-5-5-4-5-4-3-|
E|-2/3-3-3-2/3-3-3-2/3-3-3-2-3-2-1-|
       * *     * *     * * * * * *


Solo (Broderick)
e|-----------------------------------------|
B|-----------------------------------------|
G|-----------------------------------------|
D|-----------------------------12----12-14-|
A|-------10h12p10----10-12-/14----14-------|
E|-10-12----------12-----------------------|

e|----------------------------------15-17-19b22-(22)\-|
B|----------------------15----15-17-------------------|
G|-12h14p12----12-14/16----16-------------------------|
D|----------14----------------------------------------|
A|----------------------------------------------------|
E|----------------------------------------------------|

e|-[silence]--15-17b18^-17-15------------------|
B|----------------------------17~----15-17-----|
G|-----------------------------------------16~-|
D|---------------------------------------------|
A|---------------------------------------------|
E|---------------------------------------------|

e|-------------17p15p12----15p12-------------------------|
B|----15-17p15----------14-------14-15p12-17p14p12-14h15-|
G|-16----------------------------------------------------|
D|-------------------------------------------------------|
A|-------------------------------------------------------|
E|-------------------------------------------------------|

e|--------------------------------------------------|
B|-15p11-11h12-14-11h12-10-11p10----10------------0-|
G|-------------------------------12----/14\12~----0-|
D|--------------------------------------------------|
A|--------------------------------------------------|
E|--------------------------------------------------|

e|----------12-----------------15-14----|
B|-------12----15--------------------17-|
G|-14b16----------/16-15-14-------------|
D|--------------------------17----------|
A|--------------------------------------|
E|--------------------------------------|

e|-17b18-17p15----17p15-------------------------|
B|-------------18-------18p15----18p15----------|
G|----------------------------17-------17-18p17-|
D|----------------------------------------------|
A|----------------------------------------------|
E|----------------------------------------------|

e|---------------------------------|
B|---------------------------------|
G|-15----17p15---------------------|
D|----17-------17-15---------------|
A|-------------------17-16-15-14~--|
E|---------------------------------|

e|------------------------------15b18r15--|
B|----------15b18r15b18r15-12--(15b16r15)-| <-- B string gets caught in bend
G|-16-15-14-------------------------------|
D|----------------------------------------|
A|----------------------------------------|
E|----------------------------------------|

e|----------------------------------------|
B|----------------------------------------|
G|-------------12h14-16p14p12-------------|
D|----------14----------------14----------|
A|-12h14h15----------------------15-14p12-|
E|----------------------------------------|

e|------------------------------------------|
B|-------------12-14-17-17b19r17-17p15------|
G|----------12-------------------------16~--|
D|-------14---------------------------------|
A|-14h15------------------------------------|
E|------------------------------------------|

End Solo


Riff 6
e|-----------------------------------|
B|-----------------------------------|
G|-----------------------------------|
D|-----------------------------------|
A|-/7------6---5---------------------|
E|-----0-0---0---0-/7--0-0-6-0-5-0-0-|
       * *   *   *     * *   *   * *
e|-------------------------------|
B|-------------------------------|
G|-------------------------------|
D|-------------------------------|
A|-------------------------------|
E|-3-3-0-5-0-3-0-6-0-5-3-5-0-3-0-|
       *   *   *   *       *   *
e|-----------------------------------|
B|-----------------------------------|
G|-----------------------------------|
D|-----------------------------------|
A|-/7------6---5---------------------|
E|-----0-0---0---0-/7--0-0-6-0-5-0-0-|
       * *   *   *     * *   *   * *
e|---------------------------------|
B|---------------------------------|
G|---------------------------------|
D|---------------------------------|
A|---------------------------------|
E|-3-3-0-5-0-3-0-6-0-5-3-5-0-3-0-3-|
       *   *   *   *       *   * *


Play Riff 5   Solo Rhythm

Solo (Mustaine)                    x2
e|----------------------------------|
B|-17p12----------12-17p12----------|
G|-------15-12h15----------15-12h15-|
D|----------------------------------|
A|----------------------------------|
E|----------------------------------|
                                   x2
e|----------------------------------|
B|-15p12----------12-15p12----------|
G|-------15-12h15----------15-12h15-|
D|----------------------------------|
A|----------------------------------|
E|----------------------------------|

e|-------------------------------------|
B|-17p12----12-17p12-17p12----------12-|
G|-------15----------------15-12h15----|
D|-------------------------------------|
A|-------------------------------------|
E|-------------------------------------|

e|-------------------------------------|
B|-17p12-------17p12-17p12----------12-|
G|-------15-12-------------15-12h15----|
D|-------------------------------------|
A|-------------------------------------|
E|-------------------------------------|

e|-------------------------------------|
B|-15p12-------15p12-15p12----------12-|
G|-------15-12-------------15-12h15----|
D|-------------------------------------|
A|-------------------------------------|
E|-------------------------------------|

e|-------------------------------------|
B|-15p12----12-15p12-15p12----------12-|
G|-------15----------------15-12h15----|
D|-------------------------------------|
A|-------------------------------------|
E|-------------------------------------|

NOTE: He catches the b string on this bend.
e|--17b19--(19)r17--17p12----15p12----12----------------|
B|-(17)-------------------15-------15----17p12-15p12----|
G|---------------------------------------------------15-|
D|------------------------------------------------------|
A|------------------------------------------------------|
E|------------------------------------------------------|

e|-----------------------------------------------------------|
B|-17p12----15p12----12--------------------------------------|
G|-------15-------15----15p12-14p12----15p12----14p12----12\-|
D|----------------------------------14-------14-------14-----|
A|-----------------------------------------------------------|
E|-----------------------------------------------------------|

e|-----------------------------------------------|
B|-----------------------------------------------|
G|-----------------------------------------------|
D|----------------------------------------9----9-|
A|----------------------10----10-12-10-12---12---|
E|-10-10-12-10-12-10-12----12--------------------|

e|---------------------------------------------------|
B|------------------------10----10-12-10-12/15-12-15-|
G|---------9----9-12-9-12----12----------------------|
D|-12-9-12---12--------------------------------------|
A|---------------------------------------------------|
E|---------------------------------------------------|

e|-12----12-15p12-----17p15p12--------------------------------|
B|----15-----------15----------17p15p12-17p15p12--------------|
G|-----------------------------------------------15p14p12-----|
D|--------------------------------------------------------14~-|
A|------------------------------------------------------------|
E|------------------------------------------------------------|

End Solo


Riff 6a (Guitar 2 plays notes in () )
e|-----------------------------------|
B|-----------------------------------|
G|-----------------------------------|
D|-/9------8---7---------------------|
A|-/7------6---5---/9------8---7-----|
E|-----0-0---0---0-/7--0-0-6-0-5-0-0-|
       * *   *   *     * *   *   * *
e|-------------------------------|
B|-------------------------------|
G|-------------------------------|
D|-------------------------------|
A|--------------(5---4-2-4---2)--|
E|-3-3-0-5-0-3-0-6-0-5-3-5-0-3-0-|
       *   *   *   *       *   *

Repeat the above until final time play:
e|-----------------------------------|
B|-----------------------------------|
G|-----------------------------------|
D|-/9------8---7---------------------|
A|-/7------6---5---/9------8---7-----|
E|-----0-0---0---0-/7--0-0-6-0-5-0-0-|
       * *   *   *     * *   *   * *
e|---------------------------------------|
B|---------------------------------------|
G|---------------------------------------|
D|---------------------------------------|
A|--------------(5---4-2-4---2)----2-2-2-|
E|-3-3-0-5-0-3-0-6-0-5-3-5-0-3-0-3-0-0-0-|
       *   *   *   *       *   * *
Thats it! Thanks Everyone for Viewing.
Добавлено: 01.08.2015
Другие материалы по этой песне:
  • Аккорды и текст

Страница создана 01.08.2015
http://primanota.ru/megadeth/endgame-album-chords.htm
Привет, Гость.
Предлагаем пройти революционный курс по гитаре.
Подарок от PrimaNota.Ru, забирай!