PrimaNota.ru - самый крупный в мире бесплатный архив песенных текстов, аккордов, табулатур и нот


Megadeth - Deadly Nightshade - текст песни, таба, бас-таба, видео

Регистрация Запомнить меня
Войти через:  Facebook Google Twitter Vk Yandex Mail.ru

Megadeth - Deadly Nightshade - текст песни, таба, бас-таба, видео

Печатать
Просмотров: 488
Авторы музыки: Dave Mustaine
Авторы текста: Dave Mustaine
just tabbed out the rhythm parts cuz i'm not eniugh to play the solos yet, i think 
its pretty close, sounds good to me anyway

intro
E-----------------------|-----------------------|
B-----------------------|-----------------------|
G---2b3-----------------|---2b3-----------------|
D-------2-3-2-----------|-------2-3-2-----------|
A-2---------------5-4-3-|-2---------------2-1-0-|
E-0------------0--3-2-1-|-0------------0--3-2-1-|
               .                       .

E-----------------------|-----------------------|
B-----------------------|-----------------------|
G---2b3-----------------|---2b3-----------------|
D-------2-3-2-----------|-------2-3-2-----------|
A-2---------------5-4-3-|-2---------------2-1-0-|
E-0------------0--3-2-1-|-0------------0--3-2-1-|
               .                       .

E--------------------------------|--------------------------------|
B--------------------------------|--------------------------------|
G--------------------------------|--------------------------------|
D--------------------------3---3-|--------------------------3-----|
A--------------------------1---1-|--------------------------1-----|
E--0-0-013-0-0-013-0-0-013-------|--0-0-013-0-0-013-0-0-013-------|
   . . ... . . ... . . ...          . . ... . . ... . . ...

Verse
E--------------------------------|--------------------------------|
B--------------------------------|--------------------------------|
G--------------------------------|--------------------------------|
D--------------------------3---3-|--------------------------7---6-|
A--------------------------1---1-|--------------------------5---4-|
E--0-0-013-0-0-013-0-0-013-------|--0-0-013-0-0-013-0-0-013-------|
   . . ... . . ... . . ...          . . ... . . ... . . ...

E--------------------------------|--------------------------------|
B--------------------------------|--------------------------------|
G--------------------------------|--------------------------------|
D--------------------------------|--------------------------3~~---|
A--------------------------3---3-|--------------------------1~~-3-|
E--0-0-013-0-0-013-0-0-013-1---1-|--0-0-013-0-0-013-0-0-013-----1-|
   . . ... . . ... . . ...          . . ... . . ... . . ...

E--------------------------------|--------------------------------|
B--------------------------------|--------------------------------|
G--------------------------------|--------------------------------|
D--------------------------3---3-|--------------------------7---6-|
A--------------------------1---1-|--------------------------5---4-|
E--0-0-013-0-0-013-0-0-013-------|--0-0-013-0-0-013-0-0-013-------|
   . . ... . . ... . . ...          . . ... . . ... . . ...

E--------------------------------|--------------------------------|
B--------------------------------|--------------------------------|
G--------------------------------|--------------------------------|
D--------------------------------|--------------------------3~~---|
A--------------------------3---3-|--------------------------1~~-3-|
E--0-0-013-0-0-013-0-0-013-1---1-|--0-0-013-0-0-013-0-0-013-----1-|
   . . ... . . ... . . ...          . . ... . . ... . . ...

Chorus
E-----------------------|-----------------------|
B-----------------------|-----------------------|
G---2b3-----------------|---2b3-----------------|
D-------2-3-2-----------|-------2-3-2-----------|
A-2---------------5-4-3-|-2---------------2-1-0-|
E-0------------0--3-2-1-|-0------------0--3-2-1-|
               .                       .

E-----------------------|-----------------------|
B-----------------------|-----------------------|
G---2b3-----------------|---2b3-----------------|
D-------2-3-2-----------|-------2-3-2-----------|
A-2---------------5-4-3-|-2---------------2-1-0-|
E-0------------0--3-2-1-|-0------------0--3-2-1-|
               .                       .

Bass only for last bit of chorus

Verse
E--------------------------------|--------------------------------|
B--------------------------------|--------------------------------|
G--------------------------------|--------------------------------|
D--------------------------3---3-|--------------------------7---6-|
A--------------------------1---1-|--------------------------5---4-|
E--0-0-013-0-0-013-0-0-013-------|--0-0-013-0-0-013-0-0-013-------|
   . . ... . . ... . . ...          . . ... . . ... . . ...

E--------------------------------|--------------------------------|
B--------------------------------|--------------------------------|
G--------------------------------|--------------------------------|
D--------------------------------|--------------------------3~~---|
A--------------------------3---3-|--------------------------1~~-3-|
E--0-0-013-0-0-013-0-0-013-1---1-|--0-0-013-0-0-013-0-0-013-----1-|
   . . ... . . ... . . ...          . . ... . . ... . . ...

E--------------------------------|--------------------------------|
B--------------------------------|--------------------------------|
G--------------------------------|--------------------------------|
D--------------------------3---3-|--------------------------7---6-|
A--------------------------1---1-|--------------------------5---4-|
E--0-0-013-0-0-013-0-0-013-------|--0-0-013-0-0-013-0-0-013-------|
   . . ... . . ... . . ...          . . ... . . ... . . ...

E--------------------------------|--------------------------------|
B--------------------------------|--------------------------------|
G--------------------------------|--------------------------------|
D--------------------------------|--------------------------3~~---|
A--------------------------3---3-|--------------------------1~~-3-|
E--0-0-013-0-0-013-0-0-013-1---1-|--0-0-013-0-0-013-0-0-013-----1-|
   . . ... . . ... . . ...          . . ... . . ... . . ...

Chorus
E-----------------------|-----------------------|
B-----------------------|-----------------------|
G---2b3-----------------|---2b3-----------------|
D-------2-3-2-----------|-------2-3-2-----------|
A-2---------------5-4-3-|-2---------------2-1-0-|
E-0------------0--3-2-1-|-0------------0--3-2-1-|
               .                       .

E-----------------------|-----------------------|
B-----------------------|-----------------------|
G---2b3-----------------|---2b3-----------------|
D-------2-3-2-----------|-------2-3-2-----------|
A-2---------------5-4-3-|-2---------------2-1-0-|
E-0------------0--3-2-1-|-0------------0--3-2-1-|
               .                       .

E-----------------------|-----------------------|
B-----------------------|-----------------------|
G---2b3-----------------|---2b3-----------------|
D-------2-3-2-----------|-------2-3-2-----------|
A-2---------------5-4-3-|-2---------------2-1-0-|
E-0------------0--3-2-1-|-0------------0--3-2-1-|
               .                       .

E-----------------------|-----------------------|
B-----------------------|-----------------------|
G---2b3-----------------|---2b3-----------------|
D-------2-3-2-----------|-------2-3-2---44444444|
A-2---------------5-4-3-|-2-------------22222222|
E-0------------0--3-2-1-|-0------------0--------|
               .                       .

Bridge
E-----------------------|-----------------------|
A-----------------------|-----------------------|
D-7-7-7-7---------------|-7-7-7-7---------------|
G-7-7-7-7-8-8-7-7~~-5-7-|-7-7-7-7-8-8-7-7~~-5-7-|
B-5-5-5-5-8-8-7-7~~-5-7-|-5-5-5-5-8-8-7-7~~-5-7-|
E-5-5-5-5-6-6-5-5~~-3-5-|-5-5-5-5-6-6-5-5~~-3-5-|

E-----------------------|-----------------------|
A-----------------------|-----------------------|
D-7-7-7-7---------------|-7-7-7-7---------------|
G-7-7-7-7-8-8-7-7~~-5-7-|-7-7-7-7-8-8-7-7~~-----|
B-5-5-5-5-8-8-7-7~~-5-7-|-5-5-5-5-8-8-7-7~~5-4-3|
E-5-5-5-5-6-6-5-5~~-3-5-|-5-5-5-5-6-6-5-5~~3-2-1|

E-----------------------|-----------------------|
B-----------------------|-----------------------|
G---2b3-----------------|---2b3-----------------|
D-------2-3-2-----------|-------2-3-2-----------|
A-2---------------5-4-3-|-2---------------2-1-0-|
E-0------------0--3-2-1-|-0------------0--3-2-1-|
               .                       .

Solo Rhythm

E-----------------------|-----------------------|
A-----------------------|-----------------------|
D-----------------------|-----------------------|
G-----------------------|-----------------------|
B-7-6-5-----------------|-7-6-5-----------------|
E-------0-0-0-0-0-0-0-0-|-------0-0-0-0-0-0-0-0-|

E-----------------------|-----------------------|
A-----------------------|-----------------------|
D-----------------------|-----------------------|
G-----------------------|-------------------5---|
B-7-6-5-----------------|-7-6-5-------7-6-5---5-|
E-------0-0-0-0-0-0-0-0-|-------0-0-0-----------|

*REPEAT 4X*

E-----------------------|-----------------------|
A-----------------------|-----------------------|
D-----------------------|-----------------------|
G-----------------------|-----------------------|
B-----------------------|-----------------------|
E---000-----000--2--0---|---333-----333--5--3---|
    ...     ...  .  .       ...     ...  .  .

E-----------------------|-----------------------|
A-----------------------|-----------------------|
D-----------------------|-----------------------|
G-----------------------|-----------------------|
B-----------------------|-----------------------|
E---000-----000--2--0---|---333-----333--5--3---|
    ...     ...  .  .       ...     ...  .  .

E-----------------------|-----------------------|
A-----------------------|-----------------------|
D-----------------------|-----------------------|
G-----------------------|-----------------------|
B--8-2-----------5~~~~--|-8-2-------8-5-7-----5-|
E--6-0-0-0-0-0-0-3~~~~--|-6-0-0-0-0-6-3-5-0-0-3-|
       . . . . .              . . .       . .

E-----------------------|-----------------------|
A-----------------------|-----------------------|
D-----------------------|-----------------------|
G-----------------------|-----------------------|
B--8-2-----------5~~~~--|-8-2-------8-5-7-----5-|
E--6-0-0-0-0-0-0-3~~~~--|-6-0-0-0-0-6-3-5-0-0-3-|
       . . . . .              . . .       . .


E-----------------------|-----------------------|
A-----------------------|-----------------------|
D-----------------------|-----------------------|
G-----------------------|------------5---4---2--|
B--3/4-----------7~~~~--|--3/4-------3---2---0--|
E--1/2-0-0-0-0-0-5~~~~--|--1/2-2-2-2---0---0----|
       . . . . .               . . .   . 

E-----------------------|-----------------------|
A-----------------------|-----------------------|
D-----------------------|-----------------------|
G-----------------------|------------5---4-5-4-3|
B--3/4-----------7~~~~--|--3/4-------3---2-3-2-1|
E--1/2-0-0-0-0-0-5~~~~--|--1/2-2-2-2---0--------|
       . . . . .               . . .   .

Chorus
E-----------------------|-----------------------|
B-----------------------|-----------------------|
G---2b3-----------------|---2b3-----------------|
D-------2-3-2-----------|-------2-3-2-----------|
A-2---------------5-4-3-|-2---------------2-1-0-|
E-0------------0--3-2-1-|-0------------0--3-2-1-|
               .                       .

E-----------------------|-----------------------|
B-----------------------|-----------------------|
G---2b3-----------------|---2b3-----------------|
D-------2-3-2-----------|-------2-3-2-----------|
A-2---------------5-4-3-|-2---------------2-1-0-|
E-0------------0--3-2-1-|-0------------0--3-2-1-|
               .                       .

E-----------------------|-----------------------|
B-----------------------|-----------------------|
G---2b3-----------------|---2b3-----------------|
D-------2-3-2-----------|-------2-3-2-----------|
A-2---------------5-4-3-|-2---------------2-1-0-|
E-0------------0--3-2-1-|-0------------0--3-2-1-|
               .                       .

E-----------------------|-----------------------|
B-----------------------|-----------------------|
G---2b3-----------------|---2b3-----------------|
D-------2-3-2-----------|-------2-3-2-----------|
A-2---------------5-4-3-|-2---------------2-1-0-|
E-0------------0--3-2-1-|-0------------0--3-2-1-|
               .                       .

Outro
E-----------------------|-----------------------|
A-----------------------|-----------------------|
D-----------------------|-----------------------|
G-----------------------|-----------------------|
B-7-6-5-----------------|-7-6-5-----------------|
E-------0-0-0-0-0-0-0-0-|-------0-0-0-0-0-0-0-0-|

E-----------------------|-----------------------|
A-----------------------|-----------------------|
D-----------------------|-----------------------|
G-----------------------|-------------------5---|
B-7-6-5-----------------|-7-6-5-------7-6-5---5-|
E-------0-0-0-0-0-0-0-0-|-------0-0-0-----------|

*REPEAT 4X*
Добавлено: 14.07.2013
Другие материалы по этой песне:

Страница создана 28.03.2012
http://primanota.ru/megadeth/deadly-nightshade-chords.htm
Привет, Гость.
Предлагаем пройти революционный курс по гитаре.
Подарок от PrimaNota.Ru, забирай!