PrimaNota.ru - самый крупный в мире бесплатный архив песенных текстов, аккордов, табулатур и нот


Megadeth - Anarchy In The Uk - аккорды и текст, таба, бас-таба, видео

Регистрация Запомнить меня
Войти через:  Facebook Google Twitter Vk Yandex Mail.ru

Megadeth - Anarchy In The Uk - аккорды и текст, таба, бас-таба, видео

Печатать
Просмотров: 401
Авторы музыки: Steve Jones, Paul Cook, John Lydon, Glen Matlock
Авторы текста: Paul Cook, John Lydon, Glen Matlock
Anarchy In The Uk
Megadeth
The Tablature Explanation:
~~~~~~~~~~~~~~~~~~~~~~~~~~
PM - palm mute
/ - slide up
 - slide down
b - bend to (#) pitch
r - release bend
p - pull-off
~ - finger vibrato

Here's The Song Structure:
~~~~~~~~~~~~~~~~~~~~~~~~~~
Intro RIFF
VERSE RIFF } x5
PRE-CHORUS RIFF
CHORUS RIFF
POST-CHORUS RIFF 1
VERSE RIFF } x3
PRE-CHORUS RIFF
CHORUS RIFF
POST-CHORUS RIFF 2
SOLO 1
VERSE RIFF } x3
PRE-CHORUS RIFF
CHORUS RIFF
POST-CHORUS RIFF 2
SOLO 2
VERSE RIFF } x3
PRE-CHORUS RIFF
CHORUS RIFF
POST-CHORUS RIFF 2
CHORUS RIFF
POST-CHORUS RIFF 2
CHORUS RIFF
POST-CHORUS RIFF 2
CHORUS RIFF
POST-CHORUS RIFF 2 } x0.75
OUTRO RIFF

And Here's The Riffs & Solos:
~~~~~~~~~~~~~~~~~~~~~~~~~~~~~

Intro RIFF:	----------------------------------------
----------------------------------------
----------------------------------------
------------------------------------7-7-
-5-555555--55555555--3-333333--2222-5-5-
-3-333333--33333333--1-111111--0000-----
    PM....   PM......     PM....   PM..

VERSE RIFF:	-------------------------
-------------------------
-------------------------
-5-555555--5555-109-95-
-3-333333--3333--87-73-
-------------------------
    PM....   PM..

PRE-CHORUS RIFF:
--------------------
--------------------
--------------------
-5-555555--55555555-
-3-333333--33333333-
--------------------
    PM....   PM......

CHORUS RIFF:	-----------------------------------
-----------------------------------
-----------------------------------
---------------------------------7-
-55555555--555555-5--3-333333--2-5-
-33333333--333333-3--1-111111--0---
  PM......   PM....       PM....

POST-CHORUS RIFF 1:
---------------------------------------------
---------------------------------------------
---------------------------------------------
-5-555555--5555-109-95--5-555555-----------
-3-333333--3333--87-73--3-333333--55555555-
------------------------------------33333333-
    PM....   PM..              PM....   PM......

POST-CHORUS RIFF 2:
---------------------------------------------
---------------------------------------------
---------------------------------------------
-5-555555--5555-109-95--55555555--55555555-
-3-333333--3333--87-73--33333333--33333333-
---------------------------------------------
    PM....   PM..            PM......   PM......

SOLO 1:		------------------------------------------------------------
-------------10b(12)r10--------------------10b(12)r10-------
-/11-14-11~-------------12~-9--/11-14-11~-------------12~-9-
------------------------------------------------------------
------------------------------------------------------------
------------------------------------------------------------

------------------------------------------
-------------10b(12)r10-------------------
-/11-14-11~-------------12~-9--/11-14-11~-
------------------------------------------
------------------------------------------
------------------------------------------

--------------------------------------------------------
------20p18-----20p18------20p18-----20p18b(20)r18b(20)-
-/17b(19)---17b(19)----17b(19)---17b(19)----------------
--------------------------------------------------------
--------------------------------------------------------
--------------------------------------------------------

-----20------20------20------20-------20------20------20b(22)~-
-18b(20)-18b(20)-18b(20)-18b(20)--18b(20)-18b(20)-18b(20)------
---------------------------------------------------------------
---------------------------------------------------------------
---------------------------------------------------------------
---------------------------------------------------------------

SOLO 2:		-----10-10-10-10-10-10--10-10-10-10-10-10-10-10-
-----10-10-10-10-10-10--10-10-10-10-10-10-10-10-
-/11-11-11--9--9-11-11--12-11-11-11--9--9-11-11-
------------------------------------------------
------------------------------------------------
------------------------------------------------

-10-10-10-10-10-10-10-10--10-10-10-10-10-10-10-10-
-10-10-10-10-10-10-10-10--10-10-10-10-10-10-10-10-
-11-11-11-11--9--9-11-11--12-11-11-11--9--9-11-11-
--------------------------------------------------
--------------------------------------------------
--------------------------------------------------

-10-10-10-10-10-10-10-10--10-10-10-10-10-10-10-10-
-10-10-10-10-10-10-10-10--10-10-10-10-10-10-10-10-
-11-11-11-11--9--9-11-11--12-11-11-11--9--9-11-11-
--------------------------------------------------
--------------------------------------------------
--------------------------------------------------

----10-10----10-10-----10-----10-----10--
-8b(10)---8b(10)----8b(10)-8b(10)-8b(10)-
-----------------------------------------
-----------------------------------------
-----------------------------------------
-----------------------------------------

OUTRO RIFF:	---------------------
---------------------
---------------------
-5--(5)--(5)--(5)-5-
-3--(3)--(3)--(3)-3-
---------------------
Добавлено: 16.12.2013
Другие материалы по этой песне:

Страница создана 01.03.2012
http://primanota.ru/megadeth/anarchy-in-the-uk-chords.htm
Привет, Гость.
Предлагаем пройти революционный курс по гитаре.
Подарок от PrimaNota.Ru, забирай!