PrimaNota.ru - самый крупный в мире бесплатный архив песенных текстов, аккордов, табулатур и нот


Meg Rock - Egao No Riyuu - таба, видео

Регистрация Запомнить меня
Войти через:  Facebook Google Twitter Vk Yandex Mail.ru

Meg Rock - Egao No Riyuu - таба, видео

Печатать
Просмотров: 109
This the the opening to Asu no Yoichi (TV Size)                     15
                                                                    x
E standard tuning                                       add another 13 on end

Intro
e-------------------------------------    e-----------------------------------|
B-------------------------------------    B-----------------------------------|
G-10-9-10-9-10--10-9-10-9-10--10-12-10    G-10-10-9-10-9-10-15-15-15-15-15-15-|
D-xx-x-xx-x-xx--xx-x-xx-x-xx--xx-xx-xx x2 D-xx-xx-x-xx-x-xx-xx-xx-xx-xx-xx-xx-|
A-8--7-8--7-8---8--7-8--7-8---8--10-8-    A-8--8--7-8--7-8--13-13-13-13-13-13-|
E-------------------------------------    E-----------------------------------|

Verse
e----------------------------------------------------------------------|
B----------------------------------------------------------------------|
G--------5xxxx5-7xxxx7--------------5xx7xx-------------5-5-5-5-5-5-5---|
D-3xxxx3-5xxxx5-7xxxx7-8x8-8-8-8-3xx5xx7xx8xx5x5-5-5-5-5-5-5-5-5-5-5---|  x2
A-3xxxx3-3xxxx3-5xxxx5-8x8-8-8-8-3xx3xx5xx8xx5x5-5-5-5-3-3-3-3-3-3-3---|
E-1xxxx1---------------6x6-6-6-6-1xx------6xx3x3-3-3-3-----------------|


Pre-Chorus
e-------------------------------------------------------------------|
B-------------------------------------------------------------------|
G-7x7-7-7-7-9-9-9-9-10-x-10-10-10-10-12-12-10-9-7x7-7-7-7-7-9-9-9-9-|
D--x-------------------x-------------------------x------------------|
A-5x5-5-5-5-7-7-7-7-8--x-8--8--8--8--10-10-8--7-5x5-5-5-5-5-7-7-7-7-|
E-------------------------------------------------------------------|

e----------------------------------------------------------------|
B----------------------------------------------------------------|
G-12-12--12-12-12--12-12-12--12-12-12--12-14-14--14-14-14--14-14-| Hold
D-xx-xx--xx-xx-xx--xx-xx-xx--xx-xx-xx--xx-xx-xx--xx-xx-xx--xx-xx-|
A-10-10--10-10-10--10-10-10--10-10-10--10-12-12--12-12-12--12-12-|
E----------------------------------------------------------------|

Chorus
e---------------------------------------------------------------------|
B---------------------------------------------------------------------|
G-7--7-7-7-7-7-7-----------------------------------7-7----------------|
D-7--7-7-7-7-7-7-7--7-7-7-7-7-7-9--9-9-9-9-9-9-7-7-7-7-5--5-5-5-5-5-5-|
A-5--5-5-5-5-5-5-7--7-7-7-7-7-7-9--9-9-9-9-9-9-7-7-5-5-5--5-5-5-5-5-5-|
E----------------5--5-5-5-5-5-5-7--7-7-7-7-7-7-5-5-----3--3-3-3-3-3-3-|

e--------------------------------------------------------------------|
B--------------------------------------------------------------------|
G----------------4--4-4-4-4-4-4-5-5--7--7----------------------------|
D-4--4-4-4-4-4-4-4--4-4-4-4-4-4-5-5--7--7-5--5-5-5-5-5-5-4-4-x-8-8-x-|
A-4--4-4-4-4-4-4-2--2-2-2-2-2-2-3-3--5--5-5--5-5-5-5-5-5-4-4-x-8-8-x-|
E-2--2-2-2-2-2-2--------------------------3--3-3-3-3-3-3-2-2-x-6-6-x-|

e--------------------------------------------------------------------|
B--------------------------------------------------------------------|
G----------------9-x-9--9-9-9-9-------------------------------4--4-4-|
D-9-x-9--9-9-9-9-9-x-9--9-9-9-9-5--5-5-5-5-5-5-4--4-4-4-4-4-4-4--4-4-|
A-9-x-9--9-9-9-9-7-x-7--7-7-7-7-5--5-5-5-5-5-5-4--4-4-4-4-4-4-2--2-2-|
E-7-x-7--7-7-7-7----------------3--3-3-3-3-3-3-2--2-2-2-2-2-2--------|

e---------------------------------------------------------------------|
B---------------------------------------------------------------------|
G-4-4-4-4-5-5-7--7----------------------------------------------------|
D-4-4-4-4-5-5-7--7-5--5-5--5-5-7-7--7-7-9--9-9--9-9-12-12--12-12-2--2-|
A-2-2-2-2-3-3-5--5-5--5-5--5-5-7-7--7-7-9--9-9--9-9-12-12--12-12-2--2-|
E------------------3--3-3--3-3-5-5--5-5-7--7-7--7-7-10-10--10-10-0--0-|

e-----------------------------------------------------------|
B-----------------------------------------------------------|
G------------------7--7-7--7-7------------------------------|
D-2--2-2-4-4--4--4-7--7-7--7-7-7-7--7--7-5--5--5--5-7-7-7-7-|
A-2--2-2-4-4--4--4-5--5-5--5-5-7-7--7--7-5--5--5--5-7-7-7-7-|
E-0--0-0-2-2--2--2-------------5-5--5--5-3--3--3--3-5-5-5-5-|

Outro
e----------------------------------------------------------|
B----------------------------------------------------------|
G-7-6-7-6-7--7-6-7-6-7--7-9-7--7-6-7-6-7--7-6-7-6-7--7-9-7-|
D-x-x-x-x-x--x-x-x-x-x--x-x-x--x-x-x-x-x--x-x-x-x-x--x-x-x-|
A-5-4-5-4-5--5-4-5-4-5--5-7-5--5-4-5-4-5--5-4-5-4-5--5-7-5-|
E----------------------------------------------------------|

e---------------------------------------|
B---------------------------------------|
G-7-7--6-7-6-7--12-12-12-12-12-12-12--7-|
D-x-x--x-x-x-x--xx-xx-xx-xx-xx-xx-xx--x-|  Hold
A-5-5--4-5-4-5--10-10-10-10-10-10-10--5-|
E---------------------------------------|

For the cover of this song, go to http://www.youtube.com/user/JamJesterJ
Добавлено: 27.03.2012
Вам также может быть интересно:
Другие материалы по этой песне:

Страница создана 27.03.2012
http://primanota.ru/meg-rock/egao-no-riyuu-chords.htm
Привет, Гость.
Предлагаем пройти революционный курс по гитаре.
Подарок от PrimaNota.Ru, забирай!