PrimaNota.ru - самый крупный в мире бесплатный архив песенных текстов, аккордов, табулатур и нот


Mecna - Servirà Una Scala - таба, видео

Регистрация Запомнить меня
Войти через:  Facebook Google Twitter Vk Yandex Mail.ru

Mecna - Servirà Una Scala - таба, видео

Печатать
Просмотров: 43
------------------------------------------------------------------------------
     Servirà una scala (Unplugged Version)- Mecna feat. Andrea Nardinocchi 
-------------------------------------------------------------------------------
Tabbed by: LiveRur 

Tuning:Standard 

Capo III 

Riff 1 

e|----------------------------0-----------|
B|--------3-------------1-------1---------|
G|--------3-------------2---------2-------|
D|-----3-------------3--------------------|
A|-1-------------0------------------------|
E|----------------------------------------|

Riff 2 

e|---------------------------------|
B|--------3--------------6---------|
G|--------3------------7-----------|
D|-----3-------------7-------------|
A|-1-----------0-5-----------------|
E|---------------------------------|

If you don't want to use the capo, you can play this tab: 

Riff 1

e|------------------------3-----------|
B|-------6-----------4------4---------|
G|-------6-----------5--------5-------|
D|----6-----------6-------------------|
A|-4-----------3----------------------|
E|------------------------------------|

Riff 2 

e|---------------------------------|
B|-------6----------------9--------|
G|-------6-------------10----------|
D|----6-------------10-------------|
A|-4-----------3/8-----------------|
E|---------------------------------|

Intro: Riff 1 x 2 

Riff 1 
Per restare a più di un passo da te
Riff 2 
So che servirà una scala
Riff 1 
Quanto costa allontanarmi se poi
Riff 1 
Resto solo a un passo da te

Riff 1 
Ah, tonalità di blu scuro
Giallo fosforescente
Tapparelle
Chiudono fuori le mie stelle
Io trasparente

Riff 2 
scrittura mista su tela in una sala d'attesa
dalle pareti in cera, senza sorpresa.

Riff 1
Dicono che quello che piace di una cosa inattesa
è il modo in cui fa magia, fa presa.

Riff 1 
E, dai, perdiamoci,
facciamo che i binari stanno dietro a una discesa
e l'amore ci porta in chiesa.

Riff 1 
Ho sempre odiato i giochi di squadra, il calcio, le figurine, 
stavo per i cazzi miei sulle panchine.

Riff 2 
E tu sei sempre stata diversa, per dire,
ma ora che quasi ti cancello risquarcio le mie ferite.

Riff 1 
C'è la febbre da partenza, come le gite,
quand'era un bacio a farci soffrire su quel sedile
Riff 1 
ma qui l'aereo cade e il pullman si ribalta,
qui non c'è asfalto per capire di cosa si tratta e cosa ne sarà.

Riff 1
Ed io non parlo con nessuno, mi si legge in faccia,
mentre domenica, ogni sera, e lunedì ogni alba,

Riff 2 
ed il tramonto parla di quando tu eri la mia spalla
e la distanza volevamo cancellarla.

Riff 1 
Devo rifarmi un'altra, un'altra vita intendo,
dicono di chiuderne una per aprirne cento.

Riff 1 
Ho chiuso quella porta e sono al freddo,
le chiavi del portone le ho lasciate sul tuo letto.

Riff 1 
Per restare a più di un passo da te
Riff 2
so che servirà una scala
Riff 1
quanto costa allontanarmi se poi
Riff 1
resto solo a un passo da te.

Riff 1 
E salirò su tutti i palazzi del mondo 
Riff 2 
per farmi ancora un po' più in là, farmi ancora un po' più in là.
Riff 1 
Salirò su tutte le case del mondo 
Riff 2 
per farmi ancora un po' più in là, farmi un po' più in là.


Riff 1 
Per restare a più di un passo da te
Riff 2
so che servirà una scala
Riff 1
quanto costa allontanarmi se poi
Riff 1
resto solo a un passo da te.

Outro: Riff 1 Riff 2 Riff 1 

************************************

| /   slide up
| \   slide down
| h   hammer-on
| p   pull-off
| ~   vibrato
| +   harmonic
| x   Mute note
| b   Bend
| pb  Pre-bend
| br  Bend release
| pbr Pre-bend release
| brb Bend release bend

************************************
Добавлено: 25.06.2016
Другие материалы по этой песне:
  • Аккорды и текст

Страница создана 25.06.2016
http://primanota.ru/mecna/servira-una-scala-chords.htm
Привет, Гость.
Предлагаем пройти революционный курс по гитаре.
Подарок от PrimaNota.Ru, забирай!