PrimaNota.ru - самый крупный в мире бесплатный архив песенных текстов, аккордов, табулатур и нот


Meat Puppets - Out my way - текст песни, таба, видео

Регистрация Запомнить меня
Войти через:  Facebook Google Twitter Vk Yandex Mail.ru

Meat Puppets - Out my way - текст песни, таба, видео

Печатать
Просмотров: 72
Авторы музыки: Curt Kirkwood
Авторы текста: Curt Kirkwood



Date: Fri, 06 Jan 2006 00:44:53 -0700
From: iona at tribcsp.com 
Subject: m/meat_puppets/out_my_way.tab

MEAT PUPPETS - Out My Way (Kirkwood/Kirkwood/Bostrom)
-------xxxxxxxx---------------------------------------------------
solo transcribed by Jay Patton

e-----5----------------------------------------------------------------------
B------5-------------------5------5-----3-----2---------5-3-3s5-5-3------
G-4b6r--6b4-2-------2-2h4s6-6s4s6-6-(4)-4-(4)-2-4-4-4s6-6-4-4s6-6-4-
D------------4p2-2h4-4-----------------------------------------------------
A----------------------------------------------------------------------------
E----------------------------------------------------------------------------

e------------------------------------------------------------------------------
B-3s5-5-3-3-----------12-----10-----12-----10-----12------10-9-----------
G-4s6-6-4-4-/(9)-11s13--13s11--11s13--13s11--11s13--13s11-11-9----9-
D-------------------------------------------------------------9h11-----------
A------------------------------------------------------------------------------
E-------------------------------------------------------------------------------

e--------------------------------------------12-------------------------------
B-------------12-12-10-10-9-(9)----------------12--------------------------
G---9-9h11s13-13-13-11-11-9-(9)--9----9-11b13r---13b11-9-----------9-
D-11---------------------------11-9h11------------------11p9-9-9h11------
A-----------------------------------------------------------------------------
E------------------------------------------------------------------------------

x4
e------------------------
B-5--------5------------
G--6p4------6p4--------
D-----6p4------6p4-----
A--------7--------7-----
E------------------------

e-------------------------------------------------------------
B--------------14h15p14------------14h15p14h15p14------
G---------14h16--------16-14h16p14-----------------------
D----14h16--------------------------------------------------
A-/16--------------------------------------------------------
E-------------------------------------------------------------


Добавлено: 07.02.2014
Другие материалы по этой песне:
  • Аккорды и текст

Страница создана 07.02.2014
http://primanota.ru/meat-puppets/out-my-way-chords.htm
Привет, Гость.
Предлагаем пройти революционный курс по гитаре.
Подарок от PrimaNota.Ru, забирай!