PrimaNota.ru - самый крупный в мире бесплатный архив песенных текстов, аккордов, табулатур и нот


Meaghan Smith - A Little Love - таба, видео

Регистрация Запомнить меня
Войти через:  Facebook Google Twitter Vk Yandex Mail.ru

Meaghan Smith - A Little Love - таба, видео

Печатать
Просмотров: 50
I used a Meaghan Smith YT live performance as basis for this tab. Enjoy!

Verse 1:
e|--------------------------------------------|
B|---10---10-----7---7-----8---8-----8---8----|
G|--9--9-9--9---7-7-7-7---7-7-7-7---7-7-7-7---|
D|-7---------------------5---------5----------|
A|-------------5------------------------------|
E|--------------------------------------------|

Here I go again, smiling too sweet
Can't seem to hold it in every time that we meet
I get this rosy glow and weak in the knees
I hope you don't know how fast you make my heart beat


Chorus:
e|-7~~~~9~~~~-----------------------------------|
B|-8~~~~8~~~~-----------------------------------|
G|-9~~~~9~~~~-----------------------------------|
D|-9~~~~7~~~~-----------------------------------|
A|----------------------------------------------|
E|----------------------------------------------|

I'm in a little love and I'm in a little deep
Thought I'll never say a word it's a secret my heart can't keep


Instrumental (rhythm):
e|--------------------------------------------|
B|---10---10-----7---7-----8---8-----8---8----|
G|--9--9-9--9---7-7-7-7---7-7-7-7---7-7-7-7---|
D|-7---------------------5---------5----------| x2
A|-------------5------------------------------|
E|--------------------------------------------|

Instrumental (solo):
e|--------7-7-7---------------------------------|
B|-8-----8------8-8-8/10-10\-7-7h8--------------|
G|--7-9~--------------------------7-7-7\6-7-----|
D|----------------------------------------------|
A|----------------------------------------------|
E|----------------------------------------------|


e|-11/12~---------12-8-----8-8-12-8/10-15\17-17-17-17-----15-15---|
B|-------10-11\10------10----------------------------15-17--------|
G|----------------------------------------------------------------|
D|----------------------------------------------------------------|


Chorus (can be strummed or plucked):
e|-7----9---|
B|-8----8---|
G|-9----9---|
D|-9----7---|

I'm in a little love and I'm in a little deep
Though I'll never say a word it's a secret my heart-


CODA (power chord):
   Em
My feet are on the ground
   A
Whenever you are near
       Em
But my head is in the clouds
          A             D5
While the rest of me is here...

Verse 2:
e|--------------------------------------------|
B|---10---10-----7---7-----8---8-----8---8----|
G|--9--9-9--9---7-7-7-7---7-7-7-7---7-7-7-7---|
D|-7---------------------5---------5----------|
A|-------------5------------------------------|
E|--------------------------------------------|

I go again, smiling too sweet

e|------------------------|
B|---10---10-----7---7----|
G|--9--9-9--9---7-7-7-7---|
D|-7----------------------|
A|-------------5----------|
E|------------------------|

It seems that my heart has finally gone and told on

Ending:
e|----------------------------------------------|
B|-8--12--8-------------------------------------|
G|-7--12--7-------------------------------------|
D|-5------5-------------------------------------|
A|----------------------------------------------|
E|----------------------------------------------|


Me!



D5:x507xx
Добавлено: 04.09.2013
Вам также может быть интересно:
Другие материалы по этой песне:
  • Аккорды и текст

Страница создана 04.09.2013
http://primanota.ru/meaghan-smith/a-little-love-chords.htm
Привет, Гость.
Предлагаем пройти революционный курс по гитаре.
Подарок от PrimaNota.Ru, забирай!