PrimaNota.ru - самый крупный в мире бесплатный архив песенных текстов, аккордов, табулатур и нот


Meadow Island - Morning Came - таба, видео

Регистрация Запомнить меня
Войти через:  Facebook Google Twitter Vk Yandex Mail.ru

Meadow Island - Morning Came - таба, видео

Печатать
Просмотров: 93
Meadow Island - Morning Came


Standard tuning


  F#m    Asus2/G#
|--0--|  |--0--|
|--0--|  |--0--|
|--2--|  |--2--|
|--4--|  |--2--|
|--4--|  |--x--|
|-----|  |--4--|



Intro:

2 times:

e|-----------------------------------------------------------------|
B|-------0-------0-------0-------0-------0-------0-------0-------0-|
G|-----2---2---2-------2---2---2-------2---2---2-------2---2---2---|
D|---2-------2-------2-------2-------2-------2-------2-------2-----|
A|-0---------------0-----------------------------------------------|
E|---------------------------------4---------------4---------------|


Verse 1:

The sky            it's    always  gray now                and the
e|---------------------------------------------0---------------0---|
B|-------0-------0-------0-------0-------0-------0-------0-------0-|
G|-----2---2---2-------2---2---2-------2---2-----------2---2-------|
D|---2-------2-------2-------2-------2-------2-------2-------2-----|
A|-0---------------0-----------------------------------------------|
E|---------------------------------4---------------4---------------| 

   sun hides            behind the smoke clouds
e|---------------------------------------------0---------------0---|
B|-------0-------0-------0-------0-------0-------0-------0-------0-|
G|-----2---2---2-------2---2---2-------2---2-----------2---2-------|
D|---2-------2-------2-------2-------2-------2-------2-------2-----|
A|-0---------------0-----------------------------------------------|
E|---------------------------------4---------------4---------------|



Chorus:

F#m   Asus2/G#   Asus2
                 you disappeared before the morning came
F#m   Asus2/G#   Asus2
                 we are the ones who see the light
F#m   Asus2/G#   Asus2
                 you are the one they've been waiting for
F#m   Asus2/G#



e|-------------0-------------------------------0---------------0---|
B|-------0-------0-------0-------0-------0-------0-------0-------0-|
G|-----2---2-----------2---2---2-------2---2-----------2---2-------|
D|---2-------2-------2-------2-------2-------2-------2-------2-----|
A|-0---------------0-----------------------------------------------|
E|---------------------------------4---------------4---------------|

e|---------------------------------------------0---------------0---|
B|-------0-------0-------0-------0-------0-------0-------0-------0-|
G|-----2---2---2-------2---2---2-------2---2-----------2---2-------|
D|---2-------2-------2-------2-------2-------2-------2-------2-----|
A|-0---------------0-----------------------------------------------|
E|---------------------------------4---------------4---------------|



Verse 2:

   escape              the endless winter                       and
e|---------------------------------------------0---------------0---|
B|-------0-------0-------0-------0-------0-------0-------0-------0-|
G|-----2---2---2-------2---2---2-------2---2-----------2---2-------|
D|---2-------2-------2-------2-------2-------2-------2-------2-----|
A|-0---------------0-----------------------------------------------|
E|---------------------------------4---------------4---------------|

   hope                we find the shelter
e|---------------------------------------------0---------------0---|
B|-------0-------0-------0-------0-------0-------0-------0-------0-|
G|-----2---2---2-------2---2---2-------2---2-----------2---2-------|
D|---2-------2-------2-------2-------2-------2-------2-------2-----|
A|-0---------------0-----------------------------------------------|
E|---------------------------------4---------------4---------------|


Chorus:

F#m   Asus2/G#   Asus2
                 you disappeared before the morning came
F#m   Asus2/G#   Asus2
                 we are the ones who see the light
F#m   Asus2/G#   Asus2
                 you are the one they've been waiting for
F#m   Asus2/G#   Asus2
                 you disappeared before the morning came
F#m   Asus2/G#   Asus2
F#m   Asus2/G#   Asus2
F#m   Asus2/G#



Outro:

the sky            it's    always  gray now                and the
e|-------------0-------------------------------0---------------0---|
B|-------0-------0-------0-------0-------0-------0-------0-------0-|
G|-----2---2-----------2---2---2-------2---2-----------2---2-------|
D|---2-------2-------2-------2-------2-------2-------2-------2-----|
A|-0---------------0-----------------------------------------------|
E|---------------------------------4---------------4---------------| 

   sun hides            behind the smoke clouds
e|---------------------------------------------0---------------0---|
B|-------0-------0-------0-------0-------0-------0-------0-------0-|
G|-----2---2---2-------2---2---2-------2---2-----------2---2-------|
D|---2-------2-------2-------2-------2-------2-------2-------2-----|
A|-0---------------0-----------------------------------------------|
E|---------------------------------4---------------4---------------|

   escape              the endless winter                       and
e|---------------------------------------------0---------------0---|
B|-------0-------0-------0-------0-------0-------0-------0-------0-|
G|-----2---2---2-------2---2---2-------2---2-----------2---2-------|
D|---2-------2-------2-------2-------2-------2-------2-------2-----|
A|-0---------------0-----------------------------------------------|
E|---------------------------------4---------------4---------------|


hope we find home
Добавлено: 02.12.2015
Другие материалы по этой песне:
  • Аккорды и текст

Страница создана 02.12.2015
http://primanota.ru/meadow-island/morning-came-chords.htm
Привет, Гость.
Предлагаем пройти революционный курс по гитаре.
Подарок от PrimaNota.Ru, забирай!