PrimaNota.ru - самый крупный в мире бесплатный архив песенных текстов, аккордов, табулатур и нот


Meadow Island - Friends - таба, видео

Регистрация Запомнить меня
Войти через:  Facebook Google Twitter Vk Yandex Mail.ru

Meadow Island - Friends - таба, видео

Печатать
Просмотров: 90
-------------------------------------------------------------------------------
                             Friends - Meadow Island
-------------------------------------------------------------------------------
Tabbed by: plasmareagan

Tuning: standard



Intro (played backwards):

G    F#m
G    F#m


Verse 1:


   I             don't           know     you          and I don't
e|-------2-------2-------2-------2-------2-------2-------2-------2-|
B|-----------------------------------------------------------------|
G|-----2-------2-------2-------2-------2-------2-------2-------2---|
D|---4-------4-------4-------4-------4-------4-------4-------4-----|
A|-2-------2-------2-------2-------2-------2-------2-------2-------|
E|-----------------------------------------------------------------|

   need        another             friend
e|-------2-------2-------2-------2---------------------------------|
B|---------------------------------------0-------0-------0-------0-|
G|-----2-------2-------2-------2-----------------------------------|
D|---4-------4-------4-------4---------0-------0-------0-------0---|
A|-----------------------------------2-------2-------2-------2-----|
E|-2-------2-------2-------2-------3-------3-------3-------3-------|

   stop,         don't          come closer             if I'm not
e|-------2-------2-------2-------2-------2-------2-------2-------2-|
B|-----------------------------------------------------------------|
G|-----2-------2-------2-------2-------2-------2-------2-------2---|
D|---4-------4-------4-------4-------4-------4-------4-------4-----|
A|-2-------2-------2-------2-------2-------2-------2-------2-------|
E|-----------------------------------------------------------------|

   brave        enough          to bend
e|-------2-------2-------2-------2---------------------------------|
B|---------------------------------------0-------0-------0-------0-|
G|-----2-------2-------2-------2-----------------------------------|
D|---4-------4-------4-------4---------0-------0-------0-------0---|
A|-----------------------------------2-------2-------2-------2-----|
E|-2-------2-------2-------2-------3-------3-------3-------3-------|





e|-------2-------2-------2-------2-------2-------2-------2-------2-|
B|-----------------------------------------------------------------|
G|-----2-------2-------2-------2-------2-------2-------2-------2---|
D|---4-------4-------4-------4-------4-------4-------4-------4-----|
A|-2-------2-------2-------2-------2-------2-------2-------2-------|
E|-----------------------------------------------------------------|

e|-------2-------2-------2-------2---------------------------------|
B|---------------------------------------0-------0-------0-------0-|
G|-----2-------2-------2-------2-----------------------------------|
D|---4-------4-------4-------4---------0-------0-------0-------0---|
A|-----------------------------------2-------2-------2-------2-----|
E|-2-------2-------2-------2-------3-------3-------3-------3-------|




Verse 2:

   you           don't           know     me            so I don't
e|-------2-------2-------2-------2-------2-------2-------2-------2-|
B|-----------------------------------------------------------------|
G|-----2-------2-------2-------2-------2-------2-------2-------2---|
D|---4-------4-------4-------4-------4-------4-------4-------4-----|
A|-2-------2-------2-------2-------2-------2-------2-------2-------|
E|-----------------------------------------------------------------|

   need       your hand  on  my    back
e|-------2-------2-------2-------2---------------------------------|
B|---------------------------------------0-------0-------0-------0-|
G|-----2-------2-------2-------2-----------------------------------|
D|---4-------4-------4-------4---------0-------0-------0-------0---|
A|-----------------------------------2-------2-------2-------2-----|
E|-2-------2-------2-------2-------3-------3-------3-------3-------|


   stop          trying  to praise me                cause I don't
e|-------2-------2-------2-------2-------2-------2-------2-------2-|
B|-----------------------------------------------------------------|
G|-----2-------2-------2-------2-------2-------2-------2-------2---|
D|---4-------4-------4-------4-------4-------4-------4-------4-----|
A|-2-------2-------2-------2-------2-------2-------2-------2-------|
E|-----------------------------------------------------------------|


   need       to   hear    those   words
e|-------2-------2-------2-------2---------------------------------|
B|---------------------------------------0-------0-------0-------0-|
G|-----2-------2-------2-------2-----------------------------------|
D|---4-------4-------4-------4---------0-------0-------0-------0---|
A|-----------------------------------2-------2-------2-------2-----|
E|-2-------2-------2-------2-------3-------3-------3-------3-------|





e|-------2-------2-------2-------2-------2-------2-------2-------2-|
B|-----------------------------------------------------------------|
G|-----2-------2-------2-------2-------2-------2-------2-------2---|
D|---4-------4-------4-------4-------4-------4-------4-------4-----|
A|-2-------2-------2-------2-------2-------2-------2-------2-------|
E|-----------------------------------------------------------------|

e|-------2-------2-------2-------2---------------------------------|
B|---------------------------------------0-------0-------0-------0-|
G|-----2-------2-------2-------2-----------------------------------|
D|---4-------4-------4-------4---------0-------0-------0-------0---|
A|-----------------------------------2-------2-------2-------2-----|
E|-2-------2-------2-------2-------3-------3-------3-------3-------|




Verse 3:

   I             don't         belong here           surrounded by
e|-------2-------2-------2-------2-------2-------2-------2-------2-|
B|-----------------------------------------------------------------|
G|-----2-------2-------2-------2-------2-------2-------2-------2---|
D|---4-------4-------4-------4-------4-------4-------4-------4-----|
A|-2-------2-------2-------2-------2-------2-------2-------2-------|
E|-----------------------------------------------------------------|

   eyes       that burn    my      back
e|-------2-------2-------2-------2---------------------------------|
B|---------------------------------------0-------0-------0-------0-|
G|-----2-------2-------2-------2-----------------------------------|
D|---4-------4-------4-------4---------0-------0-------0-------0---|
A|-----------------------------------2-------2-------2-------2-----|
E|-2-------2-------2-------2-------3-------3-------3-------3-------|

   strangers                    around me                   taking
e|-------2-------2-------2-------2-------2-------2-------2-------2-|
B|-----------------------------------------------------------------|
G|-----2-------2-------2-------2-------2-------2-------2-------2---|
D|---4-------4-------4-------4-------4-------4-------4-------4-----|
A|-2-------2-------2-------2-------2-------2-------2-------2-------|
E|-----------------------------------------------------------------|

   down        the walls         I built
e|-------2-------2-------2-------2---------------------------------|
B|---------------------------------------0-------0-------0-------0-|
G|-----2-------2-------2-------2-----------------------------------|
D|---4-------4-------4-------4---------0-------0-------0-------0---|
A|-----------------------------------2-------2-------2-------2-----|
E|-2-------2-------2-------2-------3-------3-------3-------3-------|



Bridge:

Bm
Bm       F#m   G
Bm       F#m   G
Bm       F#m   G
Bm       F#m   G



e|-------2-------2-------2-------2-------2-------2-------2-------2-|
B|-----------------------------------------------------------------|
G|-----2-------2-------2-------2-------2-------2-------2-------2---|
D|---4-------4-------4-------4-------4-------4-------4-------4-----|
A|-2-------2-------2-------2-------2-------2-------2-------2-------|
E|-----------------------------------------------------------------|

e|-------2-------2-------2-------2---------------------------------|
B|---------------------------------------0-------0-------0-------0-|
G|-----2-------2-------2-------2-----------------------------------|
D|---4-------4-------4-------4---------0-------0-------0-------0---|
A|-----------------------------------2-------2-------2-------2-----|
E|-2-------2-------2-------2-------3-------3-------3-------3-------|



   I             don't         belong here           surrounded by
e|-------2-------2-------2-------2-------2-------2-------2-------2-|
B|-----------------------------------------------------------------|
G|-----2-------2-------2-------2-------2-------2-------2-------2---|
D|---4-------4-------4-------4-------4-------4-------4-------4-----|
A|-2-------2-------2-------2-------2-------2-------2-------2-------|
E|-----------------------------------------------------------------|

   eyes       that burn    my      back
e|-------2-------2-------2-------2---------------------------------|
B|---------------------------------------0-------0-------0-------0-|
G|-----2-------2-------2-------2-----------------------------------|
D|---4-------4-------4-------4---------0-------0-------0-------0---|
A|-----------------------------------2-------2-------2-------2-----|
E|-2-------2-------2-------2-------3-------3-------3-------3-------|



e|-------2-------2-------2-------2-------2-------2-------2-------2-|
B|-----------------------------------------------------------------|
G|-----2-------2-------2-------2-------2-------2-------2-------2---|
D|---4-------4-------4-------4-------4-------4-------4-------4-----|
A|-2-------2-------2-------2-------2-------2-------2-------2-------|
E|-----------------------------------------------------------------|

e|-------2-------2-------2-------2---------------------------------|
B|---------------------------------------0-------0-------0-------0-|
G|-----2-------2-------2-------2-----------------------------------|
D|---4-------4-------4-------4---------0-------0-------0-------0---|
A|-----------------------------------2-------2-------2-------2-----|
E|-2-------2-------2-------2-------3-------3-------3-------3-------|



Outro:

Am                           F            G
I don't know you and I don't need another friend

Am
Добавлено: 02.12.2015
Вам также может быть интересно:
Другие материалы по этой песне:
  • Аккорды и текст

Страница создана 02.12.2015
http://primanota.ru/meadow-island/friends-chords.htm
Привет, Гость.
Предлагаем пройти революционный курс по гитаре.
Подарок от PrimaNota.Ru, забирай!