PrimaNota.ru - самый крупный в мире бесплатный архив песенных текстов, аккордов, табулатур и нот


Me Vs Hero - Draw The Line - таба, видео

Регистрация Запомнить меня
Войти через:  Facebook Google Twitter Vk Yandex Mail.ru

Me Vs Hero - Draw The Line - таба, видео

Печатать
Просмотров: 61
-----------------------------------------------------------------------------
                             draw the lime - me vs hero
-----------------------------------------------------------------------------
Tabbed by: james
Email: jamesponter@gmail.com

how i play it here, email with any major corrections or if yu want me to make more :P

Tuning: Drop C#
intro 2x
D#|--------------------------------------------------------------------------|
A#|--------------------------------------------------------------------------|
F#|--------------------------------------------------------------------------|
C#|--7-8-88---10----7----8----3----------------------------------------------|
G#|--7-8-88---10----7----8----3----------------------------------------------|
C#|--7-8-88---10(8x)7(8x)8(8x)3(8x)------------------------------------------|

the scene is set
e|---------------------------------------------------------------------------|
B|---------------------------------------------------------------------------|
G|---------------------------------------------------------------------------|
D|--8~~----------------------------------------------------------------------|
A|--8~~----------------------------------------------------------------------|
E|--8~~----------------------------------------------------------------------|

feelings the we once had shared
e|---------------------------------------------------------------------------|
B|---------------------------------------------------------------------------|
G|---------------------------------------------------------------------------|
D|--3~~-----------------------------------7/8-8-8----------------------------|
A|--3~~-----------------------------------7/8-8-8----------------------------|
E|--3~~-----------------------------------7/8-8-8----------------------------|

e|---------------------------------------------------------------------------|
B|---------------------------------------------------------------------------|
G|---------------------------------------------------------------------------|
D|--10----7----8----3------------5~~~----------------------------------------|
A|--10----7----8----3------------5~~~----------------------------------------|
E|--10(8x)7(8x)8(8x)3(8x)--------5~~~----------------------------------------|

'till you went and found
e|---------------------------------------------------------------------------|
B|---------------------------------------------------------------------------|
G|---------------------------------------------------------------------------|
D|--55555~~~----3-3-33-33~~~-------------------------------------------------|
A|--55555~~~----3-3-33-33~~~-------------------------------------------------|
E|--55555~~~----3-3-33-33~~~-------------------------------------------------|
    ****
chorus 2x
e|---------------------------------------------------------------------------|
B|---------------------------------------------------------------------------|
G|---------------------------------------------------------------------------|
D|-101010-10-7-7-77-888-8-3-3-33-101010-10-7-7-77-888-8-333-3-3--------------|
A|-101010-10-7-7-77-888-8-3-3-33-101010-10-7-7-77-888-8-333-3-3--------------|
E|-101010-10-7-7-77-888-8-3-3-33-101010-10-7-7-77-888-8-333-3-3--------------|
                                                        ***
(inro)

its killing me
e|---------------------------------------------------------------------------|
B|---------------------------------------------------------------------------|
G|---------------------------------------------------------------------------|
D|--10~~~-----------------33-333-333-333-355-555-55/8-8-8--------------------|
A|--10~~~-----------------33-333-333-333-355-555-55/8-8-8--------------------|
E|--10~~~-----------------33-333-333-333-355-555-55/8-8-8--------------------|
                          ** *** *** *** *** *** *
e|---------------------------------------------------------------------------|
B|---------------------------------------------------------------------------|
G|---------------------------------------------------------------------------|
D|--10----7----8----3------------5~~~----------------------------------------|
A|--10----7----8----3------------5~~~----------------------------------------|
E|--10(8x)7(8x)8(8x)3(8x)--------5~~~----------------------------------------|

im sick and tired
e|---------------------------------------------------------------------------|
B|---------------------------------------------------------------------------|
G|---------------------------------------------------------------------------|
D|--55555~~~~---3~~~~~~-3----------------------------------------------------|
A|--55555~~~~---3~~~~~~-3----------------------------------------------------|
E|--55555~~~~---3~~~~~~-3----------------------------------------------------|
    ****
(chorus)

e|---------------------------------------------------------------------------|
B|---------------------------------------------------------------------------|
G|---------------------------------------------------------------------------|
D|--3333~~~-333/5~--333~~~-333/5~-333-3~~~-333/5~-3333~~-333-5---10~~~-10~~~-|
A|--3333~~~-333/5~--333~~~-333/5~-333-3~~~-333/5~-3333~~-333-5---10~~~-10~~~-|
E|--3333~~~-333/5~--333~~~-333/5~-333-3~~~-333/5~-3333~~-333-5---10~~~-10~~~-|
    ****    *** *   ***    *** *  *** *    *** *  ****   ***

e|---------------------------------------------------------------------------|
B|---------------------------------------------------------------------------|
G|---------------------------------------------------------------------------|
D|--10------7------8------3-------10------7------8------3-3-3-3-3-3-5-5------|
A|--10-(8x)-7-(8x)-8-(8x)-3-(8x)--10-(8x)-7-(8x)-8-(8x)-3-3-3-3-3-3-5-5------|
E|--10------7------8------3-------10------7------8------3-3-3-3-3-3-5-5------|
    *       *      *      *       *       *      *      * * * * * *
chorus 8x

End of last chorus

e|---------------------------------------------------------------------------|
B|---------------------------------------------------------------------------|
G|---------------------------------------------------------------------------|
D|--3~~~--55-77-7/10\\\\-----------------------------------------------------|
A|--3~~~--55-77-7/10\\\\-----------------------------------------------------|
E|--3~~~--55-77-7/10\\\\-----------------------------------------------------|
          *  *  *


************************************

| /   slide up
| \   slide down
| h   hammer-on
| p   pull-off
| ~   vibrato
| +   harmonic
| x   Mute note
| b   Bend
| pb  Pre-bend
| br  Bend release
| pbr Pre-bend release
| brb Bend release bend

************************************
Добавлено: 10.11.2013
Другие материалы по этой песне:
  • Аккорды и текст

Страница создана 10.11.2013
http://primanota.ru/me-vs-hero/draw-the-line-chords.htm
Привет, Гость.
Предлагаем пройти революционный курс по гитаре.
Подарок от PrimaNota.Ru, забирай!