PrimaNota.ru - самый крупный в мире бесплатный архив песенных текстов, аккордов, табулатур и нот


Me First And The Gimme Gimmes - Stand By Your Man - текст песни, таба, бас-таба, видео

Регистрация Запомнить меня
Войти через:  Facebook Google Twitter Vk Yandex Mail.ru

Me First And The Gimme Gimmes - Stand By Your Man - текст песни, таба, бас-таба, видео

Печатать
Просмотров: 167
Авторы: Tammy Wynette, Billy Sherrill

Guitar: Chris Shiflett
Tuning: Standard
Distortion all time

Intro:

e------------------------------|           
B------------------------------|           
G-----10-------7-------5-------|    2x      
D-----10-(7x)--7-(7x)--5—(14x)-|           
A------8-------5-------3-------|           
E--/---------------------------|           

Verse 1:

"Sometimes it's hard to be a woman..."          
                      
e-------------------------------------------------------------------------|              
B-------------------------------------------------------------------------|             
G---------5-x---------5-x---------3-x------------------5-x-----------5-x--|           
D--3-x----5-x----5-x--5-x--3-x----3-x----3-x----5-x----5-x----3-x----5-x--|               
A--3-x----3-x----5-x--3-x--3-x----1-x----3-x----5-x----3-x----3-x----3-x--|              
E--1-x-----------3-x-------1-x-----------1-x----3-x-----------1-x---------|              

e---------------------------------------|
B---------------------------------------|
G-------5-x-------3-------3-----5-------|
D--5-x--5-x--3----3----3—-3--3—-5--3----|
A--5-x--3-x--3----1----3--1--3—-3--3----|
E--3-x-------1---------1-----1-----1----|


Chorus:
"Stand by your man…"

e-------------------------------------------------------------------------|
B-------------------------------------------------------------------------|
G-------------------------------------------7-7-7-7-7-----------5-5-5-5-5-|      
D--3—-3--3--3—-7-7-7-7--8-8-8-8-8--3-3-3-3--7-7-7-7-7--5-5-5-5—-5-5-5-5-5-|
A--3--3--3--3—-7-7-7-7--8-8-8-8-8--3-3-3-3--5-5-5-5-5—-5-5-5-5—-3-3-3-3-3-|
E--1--1--1--1--5-5-5-5--6-6-6-6-6--1-1-1-1-------------3-3-3-3------------|

e------------------------------------------------------------------|
B------------------------------------------------------------------|
G----------------------------------------------5-5-5-5-5-----------|      
D--3-3-3-3-3-3-3--7-7-7-7--8-8-8-8-8--3-3-3-3—-5-5-5-5-5--7-7-7-7—-|
A--3-3-3-3-3-3-3--7-7-7-7--8-8-8-8-8--3-3-3-3--3-3-3-3-3—-7-7-7-7—-|
E--1-1-1-1-1-1-1--5-5-5-5--6-6-6-6-6--1-1-1-1-------------5-5-5-5--|

e--------------------------------------------------------|
B--------------------------------------------------------|
G--7-7-7-7-7-7--3-3-3-3-3-3--5-5-5-5-5-5-----------------|   
D--7-7-7-7-7-7--3-3-3-3-3-3--5-5-5-5-5-5--3-3-3-3-3-3-3--|
A--5-5-5-5-5-5--1-1-1-1-1-1--3-3-3-3-3-3--3-3-3-3-3-3-3--|
E-----------------------------------------1-1-1-1-1-1-1--|


During the 2nd Verse:
"Sometimes it's hard to be a Gimme…"

e------------------------|
B------------------------|
G-----xxx--xxx-----xxxxxx|   
D------------------------|
A------------------------|
E------------------------|

e---------------------------|
B---------------------------|
G--11-11-11-11-11-11-11-11--|   
D—-11-11-11-11-11-11-11-11--|
A---9—-9--9--9--9--9--9--9--|
E---------------------------|

Chorus:

e-------------------------------------------------------------------------|
B-------------------------------------------------------------------------|
G-------------------------------------------8-8-8-8-8-----------6-6-6-6-6-|      
D--4—-4--4--4—-8-8-8-8--9-9-9-9-9--4-4-4-4--8-8-8-8-8--6-6-6-6—-6-6-6-6-6-|
A--4--4--4--4—-8-8-8-8--9-9-9-9-9--4-4-4-4--6-6-6-6-6—-6-6-6-6—-4-4-4-4-4-|
E--2--2--2--2--6-6-6-6--7-7-7-7-7--2-2-2-2-------------4-4-4-4------------|

e--------------------------------------------------------------------|
B--------------------------------------------------------------------|
G------------------------------------------------6-6-6-6-6-----------|      
D--4-4-4-4-4-4-4-4--8-8-8-8--9-9-9-9-9--4-4-4-4--6-6-6-6-6—-8-8-8-8—-|
A--4-4-4-4-4-4-4-4--8-8-8-8--9-9-9-9-9--4-4-4-4--4-4-4-4-4—-8-8-8-8—-|
E--2-2-2-2-2-2-2-2--6-6-6-6--7-7-7-7-7--2-2-2-2-------------6-6-6-6--|

e---------------------------------------------|
B---------------------------------------------|
G--8-8-8-8-8-8--4--4--6--6--7--7--7--7--------|   
D--8-8-8-8-8-8--4--4--6--6--7--7--7—-7----4~--|
A--6-6-6-6-6-6--2--2--4--4--5--5--5—-5----4~--|
E-----------------------------------------2~--|


Please rate the tab!
Zach182



Добавлено: 29.05.2012
Другие материалы по этой песне:
  • Аккорды и текст

Страница создана 05.04.2012
http://primanota.ru/me-first-and-the-gimme-gimmes/stand-by-your-man-chords.htm
Привет, Гость.
Предлагаем пройти революционный курс по гитаре.
Подарок от PrimaNota.Ru, забирай!