PrimaNota.ru - самый крупный в мире бесплатный архив песенных текстов, аккордов, табулатур и нот


Me First And The Gimme Gimmes - Pure imagination - бас-таба, видео

Регистрация Запомнить меня
Войти через:  Facebook Google Twitter Vk Yandex Mail.ru

Me First And The Gimme Gimmes - Pure imagination - бас-таба, видео

Печатать
Просмотров: 82
Уроки эстрадного вокала в Санкт-Петербурге


Tabbed by Zakk Worthman

)= slide up
p=pause
*=play about 16 times
  (Intro)
g|--------------------|
d|--------------------|
a|p-4-2-p-4-2-p-4-2---|
e|-------------------0|

take a look and you'll see........
(Verse)
g|------------------------------------------|
d|----7)9-7---------------------------------|   
a|77---------9-7---------------5-55-55-55-77|
e|----------------55-5-7-9------------------|

(Bridge)
g|-----------------------------------|
d|*----------------------------------|
a|9----------------------------------|
e|-----------------------------------|

chorus
g|-----------------------------------------------
d|---------------------------7-7-7---------------
a|---------------------5-5-5--------5-5-5-5)9-9-9
e|9-9-9-9h7-7-7-7h5-5-5--------------------------

g|--------------------|
d|--------------------|
a|--------------------|
e|77777-0p------------|


(outroTruly wish to be)
g|----------------------|
d|----------------------|
a|7----5---- let it ring|
e|--5-------------------|



My first tab it may be a little un professional but just get the timming down and your fieits 
an easy song, well if i tabbed it right lol, any way send me waht you think at
How_did_the_cat_get_so_fat@hotmail.com

Добавлено: 17.02.2014
Другие материалы по этой песне:
  • Аккорды и текст

Страница создана 17.02.2014
http://primanota.ru/me-first-and-the-gimme-gimmes/pure-imagination-chords.htm
Привет, Гость.
Предлагаем пройти революционный курс по гитаре.
Подарок от PrimaNota.Ru, забирай!