PrimaNota.ru - самый крупный в мире бесплатный архив песенных текстов, аккордов, табулатур и нот


Me First And The Gimme Gimmes - I'll Be There - аккорды и текст, таба, видео

Регистрация Запомнить меня
Войти через:  Facebook Google Twitter Vk Yandex Mail.ru

Me First And The Gimme Gimmes - I'll Be There - аккорды и текст, таба, видео

Печатать
Просмотров: 74
Уроки эстрадного вокала в Санкт-Петербурге
Авторы: Berry Gordy, Bob West, Willie Hutch, Hal Davis

I'll Be There
Me First And The Gimme Gimmes
I'LL BE THERE - ME FIRST AND THE GIMME GIMMES
>From Take A Break CD (2003)
Tabbed by: Jose Luis Tarantino (bassist of Tolerancia 0, jtarant@fi.uba.ar)

I think this song was played with guitars tuned half-step down. I'll use
Normal Tuning because most songs
are tabbed this way, but if you want to tune a half-step down, you'll have
to move all chords up 1 fret:
B becomes C, F# becomes G (355xx, not the high one),  G# becomes A, D#
becomes open E, and so on.

Intro: p=palm-muted
e|--------|----------|
B|--------|----------|
G|--------|----------|
D|--p--9--|--p--9--9-|
A|-9---9--|-9---9--9-|
E|-7---7--|-7---7--7-|

Verse:
e|------------------------------------|
B|-----------------p----p-------------|
G|--p----p----p---8----9-----p----p---|
D|-9----4----6----8----9----4----9----|
A|-9----4----6----6----7----4----9----|
E|-7----2----4--------------2----7----|
play verse2

Bridge: "I'll be there to comfort you..." *=strum
e|---------X2----------|
B|--*---------*--------|
G|-7-----*---9-----*---|
D|-7----7----9----9----|
A|-5----7----7----9----|
E|------5---------7----|
last time keep playing B, then play verse3.

Verse 4: "If you should ever find someone new..." Watch the chord changes!
e|--------------------------------------|
B|-----------------*-----------*--------|
G|--*----*----*---8----9--6--11-----*---|
D|-9----4----6----8----9--6--11----9----|
A|-9----4----6----6----7--4---9----9----|
E|-7----2----4---------------------7----|
then play bridge

Outro: "I'll be there...(hey, hey)" play Verse 4

end on B
     
Добавлено: 20.11.2013
Другие материалы по этой песне:
  • Аккорды и текст

Страница создана 27.06.2012
http://primanota.ru/me-first-and-the-gimme-gimmes/ill-be-there-chords.htm
Привет, Гость.
Предлагаем пройти революционный курс по гитаре.
Подарок от PrimaNota.Ru, забирай!