PrimaNota.ru - самый крупный в мире бесплатный архив песенных текстов, аккордов, табулатур и нот


Me First And The Gimme Gimmes - I Will Always Love You - таба, видео

Регистрация Запомнить меня
Войти через:  Facebook Google Twitter Vk Yandex Mail.ru

Me First And The Gimme Gimmes - I Will Always Love You - таба, видео

Печатать
Просмотров: 59
Авторы музыки: Dolly Parton
Авторы текста: Dolly Parton
The MADDBa$$i$t brings you:
Me First and the Gimme Gimmes
Cover of:
I will always love you

*= Let Ring

INTRO (x2
e|-------------------------------------------------------------------------|
b|-------------------------------------------------------------------------|
G|-4-4---------------------------------------------------------------------|
D|-4-4-4-------------------------------------------------------------------|
A|-2-2-4-------------------------------------------------------------------|
E|-----2*------------------------------------------------------------------|

VERSE (X2)
e|-------------------------------------------------------------------------|
b|-------------------------------------------------------------------------|
G|-4-4-----4-4-----11-10-8-8-8-8-6-6-6-6-4-4-4-4-6-6-6-6-------------------|
D|-4-4-4---4-4-4---11-10-8-8-8-8-6-6-6-6-4-4-4-4-6-6-6-6-------------------|
A|-2-2-4---2-2-4---9--8--6-6-6-6-4-4-4-4-2-2-2-2-4-4-4-4-------------------|
E|-----2*------2*----------------------------------------------------------|

1st CHORUS
e|-------------------------------------------------------------------------|
b|-------------------------------------------------------------------------|
G|-11-11-11-11-8-8-8-8-4-4-4-4-6-6-6-6-11-11-11-10-8-8-8-6-4-4-4-8-6-6-6-6-|
D|-11-11-11-11-8-8-8-8-4-4-4-4-6-6-6-6-11-11-11-10-8-8-8-6-4-4-4-8-6-6-6-6-|
A|-9--9--9--9--6-6-6-6-2-2-2-2-4-4-4-4-9--9--9--8--6-6-6-4-2-2-2-6-4-4-4-4-|
E|-------------------------------------------------------------------------|

Prologe to 2nd Verse (x4)
e|-------------------------------------------------------------------------|
b|-------------------------------------------------------------------------|
G|---------4---------------------------------------------------------------|
D|-4-4-4-4-4---------------------------------------------------------------|
A|-4-4-4-4-2---------------------------------------------------------------|
E|-2-2-2-2-----------------------------------------------------------------|

(Repeat VERSE)

2nd CHORUS 
e|-------------------------------------------------------------------------|
b|-------------------------------------------------------------------------|
G|-11-11-11-11-8-8-8-8-4-4-4-4-6-6-6-6-11-11-11-10-8-8-8-6-4-4-4-8-6-6-6-10|
D|-11-11-11-11-8-8-8-8-4-4-4-4-6-6-6-6-11-11-11-10-8-8-8-6-4-4-4-8-6-6-6-10|
A|-9--9--9--9--6-6-6-6-2-2-2-2-4-4-4-4-9--9--9--8--6-6-6-4-2-2-2-6-4-4-4-8-|
E|-------------------------------------------------------------------------|

e|-------------------------------------------------------------------------|
b|-------------------------------------------------------------------------|
G|-11-11-11-10-8-8-8-6-4-4-4-8-6-6-6-6-------------------------------------|
D|-11-11-11-10-8-8-8-6-4-4-4-8-6-6-6-6-------------------------------------|
A|-9--9--9--8--6-6-6-4-2-2-2-6-4-4-4-4-------------------------------------|
E|-------------------------------------------------------------------------|

Bridge (x4)
e|-------------------------------------------------------------------------|
b|-------------------------------------------------------------------------|
G|-------------4-4---------------------------------------------------------|
D|-4-4-4-4-4-4-4-4---------------------------------------------------------|
A|-4-4-4-4-4-4-2-2---------------------------------------------------------|
E|-2-2-2-2-2-2-------------------------------------------------------------|

When singing starts... (x2)
e|----------------------|--------------------------------------------------|
b|----------------------|--------------------------------------------------|
G|-------------4-4------|11-10-8-8-8-8-6-6-6-6-4-4-4-4-6-6-6-6-------------|
D|-4-4-4-4-4-4-4-4-(x2)-|11-10-8-8-8-8-6-6-6-6-4-4-4-4-6-6-6-6-------------|
A|-4-4-4-4-4-4-2-2------|9--8--6-6-6-6-4-4-4-4-2-2-2-2-4-4-4-4-------------|
E|-2-2-2-2-2-2----------|--------------------------------------------------|

Repeat 2nd Chorus

Outro (x3)
e|-------------|-----------------------------------------------------------|
b|-------------|-----------------------------------------------------------|
G|---------4---|-4-4-------------------------------------------------------|
D|-4-4-4-4-4---|-4-4-4-----------------------------------------------------|
A|-4-4-4-4-2---|-2-2-4-----------------------------------------------------|
E|-2-2-2-2-----|-----2-----------------------------------------------------|
Добавлено: 29.06.2013
Другие материалы по этой песне:
  • Аккорды и текст

Страница создана 29.06.2013
http://primanota.ru/me-first-and-the-gimme-gimmes/i-will-always-love-you-chords.htm
Привет, Гость.
Предлагаем пройти революционный курс по гитаре.
Подарок от PrimaNota.Ru, забирай!