PrimaNota.ru - самый крупный в мире бесплатный архив песенных текстов, аккордов, табулатур и нот


Me First And The Gimme Gimmes - Coming To America - таба, видео

Регистрация Запомнить меня
Войти через:  Facebook Google Twitter Vk Yandex Mail.ru

Me First And The Gimme Gimmes - Coming To America - таба, видео

Печатать
Просмотров: 69
Intro
e-----------|
b-----------|
g-----------|
d-3-3--3-3--|
a-3-3--3-3--|
e-1-1--1-1--|

Rhythm
(Multiple Times)
e---------------|When
b---------------|Notes go up
g---------------|a Step
d-3-3~---5-5~---|
a-3-3~---5-5~---|
e-1-1~---3-3~---|

Lead (Comprised of Several Riffs.  Know when to play which One)
Riff 1
e--------------------|
b-6-5-6-----6-5-6----|
g-------5---------5--|
d--------------------|
a--------------------|
e--------------------|

Riff 2
e-------------------------------|
b-6-5-6-8-6-5-6--6-5-6-8-6-5-6--|
g-------------------------------|
d-------------------------------|
a-------------------------------|
e-------------------------------|

Riff 3
e----------------8-|
b-6-5-6----6-5-6---|
g-------6----------|
d------------------|
a------------------|
e------------------|

Riff 4
e------------------|
b-8-7-8----8-7-8---|
g-------8--------8-|
d------------------|
a------------------|
e------------------|

Riff 5
e----------------10-|
b-8-7-8----8-7-8----|
g-------8-----------|
d-------------------|
a-------------------|
e-------------------|

Riff 6
e--------------------------------|
b-8-7-8-10-8-7-8--8-7-8-10-8-7-8-|
g--------------------------------|
d--------------------------------|
a--------------------------------|
e--------------------------------|


Chorus
Rhythm
e----------------------------------------|
b----------------------------------------|
g-----------77777777---------------------|
d-22222222--77777777--33333333--22222222-|
a-22222222--55555555--33333333--22222222-|
e-00000000------------11111111--00000000-|

Lead
e-------------------------------------|
b-------------------------------------|
g---------4~--5-4-----5-4-----4-------|2x
d-5~--5-7---------7~------7~----7-5~--|
a-------------------------------------|
e-------------------------------------|

end with
g-----------|
d-5~--4-2~--|
a-----------|

Pre-Solo
Rhythm
e-----------------------------|
b-----------------------------|
g-------------4-6-7~--7-------|
d-7~--7-2-4~--4-6-7~--7-7-9~--|
a-7~--7-2-4~--2-4-5~--5-7-9~--|
e-5~--5-0-2~------------5-7~--|

Solo
Lead
e--------------------|
b--------------------|
g-9-9-7-7--7-6-7-6---| 3x
d------------------7-|
a--------------------|
e--------------------|

e----------------------|
b----------------------|
g-9-9-7-7--7-6-7-6-7-9-|
d----------------------|
a----------------------|
e----------------------|

Rhythm
e-----------------------------------------------------|
b-----------------------------------------------------|
g---------------------------777777777777-444444444444-|
d-777777777777-444444444444-777777777777-444444444444-|
a-777777777777-444444444444-555555555555-222222222222-|
e-555555555555-222222222222---------------------------|

Outro
Lead
e--------------------------------------------|
b--------------------------------------------|
g--------------------------------------------|
d---7-10~--8-7-8-7-10~----7-10~--8-7-8-7-----|
a-8---------------------8----------------8~--|
e--------------------------------------------|

Rhythm
e-----------------------------|
b-----------------------------|
g-----------------------------|
d-3333333333333333333333---3~-|
a-3333333333333333333333---3~-|
e-1111111111111111111111---1~-|
Добавлено: 02.11.2013
Другие материалы по этой песне:
  • Аккорды и текст

Страница создана 02.11.2013
http://primanota.ru/me-first-and-the-gimme-gimmes/coming-to-america-chords.htm
Привет, Гость.
Предлагаем пройти революционный курс по гитаре.
Подарок от PrimaNota.Ru, забирай!