PrimaNota.ru - самый крупный в мире бесплатный архив песенных текстов, аккордов, табулатур и нот


Me First And The Gimme Gimmes - Ain't No Sunshine - аккорды и текст, видео

Регистрация Запомнить меня
Войти через:  Facebook Google Twitter Vk Yandex Mail.ru

Me First And The Gimme Gimmes - Ain't No Sunshine - аккорды и текст, видео

Печатать
Просмотров: 124
Авторы музыки: Bill Withers
Авторы текста: Bill Withers
Ain't No Sunshine
Me First And The Gimme Gimmes
AIN'T NO SUNSHINE - ME FIRST AND THE GIMME GIMMES
>From Take A Break CD (2003)
Tabbed by: Jose Luis Tarantino (bassist of Tolerancia 0, jtarant@fi.uba.ar)

Intro: *=strum
e|-------------------------------------------------|
B|-----------*-------------------------------------|
G|--*-------7-------*--------*---------------------|
D|-7--------7------3--------7---------2----5----7--|
A|-7--------5------3--------7---------2----5----7--|
E|-5---------------1--------5---------0----3----5--|

Verses:
Guitar1
e|----------X2---------|-----------------------------------------|
B|---------------------|---*-------------------------------------|
G|--*------------------|--7-------*--------*---------------------|
D|-7------2----5----7--|--7------3--------7---------3----5----7--|
A|-7------2----5----7--|--5------3--------7---------3----5----7--|
E|-5------0----3----5--|---------1--------5---------1----3----5--|
Guitar2
e|----------X2---------|-----------------------------------------|
B|---------------------|---*-------------------------------------|
G|--*------------------|--7-------*--------*--------10---12------|
D|-7------2----5----7--|--7------3--------7-------------------7--|
A|-7------2----5----7--|--5------3--------7---------8----10---7--|
E|-5------0----3----5--|---------1--------5-------------------5--|

Bridge: "I know, I know, I know..." (Bass only)
G|----|
D|----|
A|--*-|
E|-5--|
then play verse

Outro: "Any time she goes away..."
e|---------X3----------|
B|---------------------|
G|--*------------------|
D|-7------2----5----7--|
A|-7------2----5----7--|
E|-5------0----3----5--|
     
Добавлено: 11.08.2013
Другие материалы по этой песне:
  • Аккорды и текст

Страница создана 22.07.2012
http://primanota.ru/me-first-and-the-gimme-gimmes/aint-no-sunshine-chords.htm
Привет, Гость.
Предлагаем пройти революционный курс по гитаре.
Подарок от PrimaNota.Ru, забирай!