PrimaNota.ru - самый крупный в мире бесплатный архив песенных текстов, аккордов, табулатур и нот


Mclusky - What Weve Learned - таба, бас-таба, видео

Регистрация Запомнить меня
Войти через:  Facebook Google Twitter Vk Yandex Mail.ru

Mclusky - What Weve Learned - таба, бас-таба, видео

Печатать
Просмотров: 105
Mclusky - What We've Learned guitar tab

Verse riffs:

E-0-0-0-0-0-0-0-0-|-0-0-0-0-0-0-0-0-|-0-0-0-0--0--|-0-0-0-0-0-0-0-0-|
B-5-5-5-5-5-5-5-5 |-5-5-5-5-5-9-9---|-6-6-6-8--6--|-3-3-3-3-5-3-1-3-|
G-----------------|-----------------|-------------|-----------------|
D-----------------|-----------------|-------------|-----------------|
A-----------------|-----------------|-------------|-----------------|
E-----------------|-----------------|-------------|-----------------|

Before each chorus

E----0--0----|-0-0-0-0-0-0-0-0-|
B----0--1--- |-3-3-3-3-3-3-3-3-|
G-2----------|-----------------|
D------------|-----------------|
A------------|-----------------|
E------------|-----------------|

Chorus changes to 6/4

E-0-0-0-0-0--0--0--0--0--0--0--0--|
B-8-8-8-8-10-10-10-10-14-14-14-14-|
G---------------------------------|
D---------------------------------|
A---------------------------------|
E---------------------------------|

That is it!
Добавлено: 16.12.2015
Другие материалы по этой песне:
  • Аккорды и текст

Страница создана 06.05.2012
http://primanota.ru/mclusky/what-weve-learned-chords.htm
Привет, Гость.
Предлагаем пройти революционный курс по гитаре.
Подарок от PrimaNota.Ru, забирай!