PrimaNota.ru - самый крупный в мире бесплатный архив песенных текстов, аккордов, табулатур и нот


Mclusky - Lightsaber Cocksucking Blues - таба, видео

Регистрация Запомнить меня
Войти через:  Facebook Google Twitter Vk Yandex Mail.ru

Mclusky - Lightsaber Cocksucking Blues - таба, видео

Печатать
Просмотров: 160
Mclusky is kinda one of those no-name bands, but a really good band and I know
some people who know them so I figured there were other people too. So I wanted
to tab some of their songs out. Go to at least one of the
two following websites: 

       www.rathergood.com/lightsabre/
       www.mclusky.net/
       www.allmusic.com/


Artist: McLusky
Song: Lightsaber Cocksucking Blues (Chapple/Falkous/Harding) / Track #1/14
Album:  McLusky Do Dallas ('2002)
Standard Tuning
Tabbed By: Renny Deckert  (hes_risin_agen@hotmail.com)

 Verse
E|-------------------------------------------|
B|-------------------------------------------|
G|-------------------------------------------|
D|---3-------8---8---8---6-------------------|
A|---3-------8---8---8---6-------------------|
E|---3-------8---8---8---6-------------------|

  Chorus
E|-------------------------------------------|
B|-------------------------------------------|
G|--------------------------8----------------|
D|---3----------6-----------8----------------|
A|---3—-2--3----6--2--3-----6--2--3----------|
E|---3----------6----------------------------|

  Riff 1
E|-------------------------------------------------------|
B|-------------------------------------------------------|
G|-------------------------5--3--5-----------------------|
D|--3—(let this)--3--6--3--5--3--5--3--3--3--3--3--3-----|
A|--3—(ring out)--3--6--3--3--1--3--3--3--3--3--3--3-----|
E|--3-------------3--6--3-----------3--3--3--3--3--3-----|

  Riff 2
E|--------------------------|
B|--------------------------|
G|--------------------------|
D|----3--3--3--3--3--3------|
A|----3--3--3--3--3--3------|
E|----3--3--3--3--3--3------|


Verse x4
Chorus x2
Verse x4
Chorus x2
Riff 1

(Right here, go through the chorus and riff 4 times)

Verse x4

 
 End
E|-----|
B|-----|
G|-----|
D|--3--|
A|--3--|
E|--3--|
Добавлено: 22.04.2012
Другие материалы по этой песне:
  • Аккорды и текст

Страница создана 22.04.2012
http://primanota.ru/mclusky/lightsaber-cocksucking-blues-chords.htm
Привет, Гость.
Предлагаем пройти революционный курс по гитаре.
Подарок от PrimaNota.Ru, забирай!