PrimaNota.ru - самый крупный в мире бесплатный архив песенных текстов, аккордов, табулатур и нот


Mcfly - Unsaid Things (ver 2) Live - бас-таба, видео

Регистрация Запомнить меня
Войти через:  Facebook Google Twitter Vk Yandex Mail.ru

Mcfly - Unsaid Things (ver 2) Live - бас-таба, видео

Печатать
Просмотров: 41
Новый альбом группы 'Черный Кузнец' по культовому сериалу 'Сверхъестественное'!
Verse

G|----------------------------------------------|
D|------5---5-----------------------------------|   x2
A|-----5-------2-2--2--2--9-7-7-7-7-9-3-3-3-55--|
E|-3-3----3--------2-----------7----------------|

G|-----------------------------------------------|
D|-----------------------------------------------|   
A|---7-------3---7-5-5--5-5-7--------------------|
E|-5---5-3-1---1-------5------3333-15151515------|

Chorus

G|------------------------------------------------|
D|---------------3--------------------------------|   
A|-3333---------3-----8-5-5--5-5-7-----15151515---|
E|-----0000-1-1----1--------5------3333-----------|

G|------------------------------------------------|
D|---------------3--------------------------------|   
A|-3333---------3-----8-5555----------------------|
E|-----0000-1-1----1--------3---------------------|

G|-------------------------------|
D|-------------------------------|   
A|-3-3-5-7-5-2-1-----------------|
E|-------------------------------|

Verse

G|-----------------------------------------------|
D|------5---5-9-7-5-4----------------------------|   
A|-----5--------------7-7--7-7-9-3-3-3-55--------|
E|-3-3----3---------------7----------------------|


G|----------------------------------------------|
D|------5---5-----------------------------------|   
A|-----5-------2-2--2--2--9-7-7-7-7-9-3-3-3-55--|
E|-3-3----3--------2-----------7----------------|

G|-----------------------------------------------|
D|-----------------------------------------------|   
A|---7-------3---7-5-5--5-5-7--------------------|
E|-5---5-3-1---1-------5------3333-15151515------|

Chorus

G|------------------------------------------------|
D|---------------3--------------------------------|   
A|-3333---------3-----8-5-5--5-5-7-----15151515---|
E|-----0000-1-1----1--------5------3333-----------|

G|------------------------------------------------|
D|---------------3--------------------------------|   
A|-3333---------3-----8-5555----------------------|
E|-----0000-1-1----1--------3---------------------|

G|-------------------------------|
D|-------------------------------|   
A|-3-3-5-7-5-2-1-----------------|
E|-------------------------------|

 
Middle 8

G|-------------------------------------------------------------------------|
D|--------------------------------16161616-14141414-12-12-12121212121212---|
A|----------------------------------------------------------------------12-|
E|-3-s-15--2-s-14-0-0-0-0-1-1-1-1------------------------------------------|

Solo

G|-----------------------------------------------|
D|-----------------------------------------------|   
A|---7-------3---7-5-5--5-5-7--------------------|
E|-5---5-3-1---1-------5------3333-15151515------|

G|---------------------------------------------------------------|
D|---------------------------------------------------------------|   
A|---7-------3---7-5-5--5-5-7------------------------------------|
E|-5---5-3-1---1-------5------3333-151515151515151515151515------|

Chorus

G|------------------------------------------------|
D|---------------3--------------------------------|   
A|-3---------3-----8-5-5--5-5-7-----15151515------|
E|-----0-1-1----1--------5------3333-------------|

G|------------------------------------------------|
D|---------------3--------------------------------|   
A|-3333---------3-----8-5--------3----------------|
E|-----0000-1-1----1--------1---------------------|


 
G|-------------------------------|
D|-------------------------------|   
A|-------------------------------|
E|-------------------------------|
Добавлено: 17.02.2018
Другие материалы по этой песне:
  • Аккорды и текст

Страница создана 17.02.2018
http://primanota.ru/mcfly/unsaid-things-ver-2-live-chords.htm
Привет, Гость.
Предлагаем пройти революционный курс по гитаре.
Подарок от PrimaNota.Ru, забирай!