PrimaNota.ru - самый крупный в мире бесплатный архив песенных текстов, аккордов, табулатур и нот


Mcfly - Surf Medley Live - таба, бас-таба, видео

Регистрация Запомнить меня
Войти через:  Facebook Google Twitter Vk Yandex Mail.ru

Mcfly - Surf Medley Live - таба, бас-таба, видео

Печатать
Просмотров: 129
hello people, this is the surf medley mcfly played live in wembley includes 4 
ongs from their first album. hope you enjoy

CAPO- 1st Fret

Harry hits drumsticks:
1,2,1,2,3,4
G
Well its quarter to four
                                    C
We're hanging out at the pizza place
G
and we've all got our boards
                                  D
later on we're gonna catch the waves
   (Guitar 2)
    D
e--2-2-0--3-3-2--------------------------------------------------------------|
B----------------3-----------------------------------------------------------|
G----------------------------------------------------------------------------|
D----------------------------------------------------------------------------|
A----------------------------------------------------------------------------|
E----------------------------------------------------------------------------|

G
well that's what i said when i left her in bed
            C
with the radio on and the book she read
G
let the truth be known
            D
i just wanna date a surfer babe
G                            C
i hope i'm not a little too late
                               G
i never know what you're gonna say
     D
you don't think you're my type
C
but you are, but you are, but you are, but you are
G
you know i just
                                C
don't know how i'm gonna get through this

thing that i've been feeling for
G               D
you don't think i know your name
C
but i do, but i do, but i do

you're a surfer babe

G      D Dsus4     C

(G)
Well you better get home coz your Dad is awake
(C)
He said he saw you last night making out by the lake
(G)                                                           (D)
With a boy that he hates doesn't loook at me the same way that you do
(G)
He said I look pretty cute but I dont got the grades
(C)
Seen the star on my foot and the way I behave 
           (G)          (D)            (G)
And we're better off if we moved outta town
|-9-8-6--------------------|
|-------9-6----------------|
|-----------9-8-6----------|
|-----------------8~-------|
|--------------------------|
|--------------------------|


         (C)                (G)
Oh Baby you, got nothin to prove
       (C)         (G)             (C)            (G)
But if we decide to go it doesn't mean he's gotta know
        (C)                 (G) 
Oh baby you, got nothin to lose
           (C)              (D)         (G)
And we're better off when Daddys not around

Not relative to capo)
            D           Cadd9        G
|----------11-11--------9-9----------4----------------|
|-------11-11-11------9-9-9----4--6--4-6-4---4--6--4--|
|-11h12----------9h10--------5---------6-4h5----------|
|-----------------------------------------------------|
|-----------------------------------------------------|
|-----------------------------------------------------|

|--7--6--4--------------------------------------------|
|-----------7--4--------------------------------------|
|-----------------7--6--4-----------------------------|
|--------------------------6--------------------------|
|-----------------------------------------------------|
|-----------------------------------------------------|
G
Went out with the guys
Cadd9
And before my eyes
G
There was this girl 
               D
She looked so fine

(Not relative to capo)
|-11-11-9-9-8-8-------------|
|---------------11-11-9-----|
|---------------------------|
|---------------------------|
|---------------------------|
|---------------------------|
                 G
And she blew my mind
                          Cadd9
And I wished that she was mine
             G
And I said, hey wait up 

(Not relative to capo)
|-8-----8--6----6--4-4-4-4-4-4-4-4-4---------|
|------------------4-4-4-4-4-4-4-4-4---------|
|----8~------8~------------------------------|
|--------------------------------------------|
|--------------------------------------------|
|--------------------------------------------|
           D               G
Cause I'm off to speak to her
                      G
And my friends said (Never get her, never gonna...)
             Cadd9
But I didn't care
                               G
Cause I loved the long blonde hair
                     D
And love was in the air
                  G
And she looked at me
                 Cadd9
And the rest is history
G                   
Dude you're being silly 
               D                  Cadd9
Cause you're never gonna get that girl
             D
And you're never gonna get the girl

G
We spoke for hours
Cadd9
Took off my trousers
G                              D
Spent the day laughing in the sun
            G
And we had fun 
                                Cadd9
And my friends they all looked stunned yeah, yeah
G
Dude she's amazing 
        D                          G
And I can't believe you got that girl
                       G
And my friends said (She's amazing, I can't believe...)
                       Cadd9
It gave me more street cred 
                     G
I dug the book she read
                   D
And how could I forget
               G
She rocks my world
                    Cadd9
More than any other girl yeah, yeah
G                          D                        Cadd9
Dude she's amazing and I can't believe you got that girl
        D
And I can't believe you got the girl

don't know interlude here, improvise (don't really need it)

Bm              C
She looked incredible
                Bm
Just turned seventeen
              C
I guess my friends are right
                  Em
She's out of my league
                 D
So what am I to do
                       C 
She's too good to be true

Guitar Solo: (Not relative to capo)
            G                            Cadd9                                      
|------------------------------------------------------------------|
|------------------------------------------------6--4--4b4.5-------|
|---6-6-6--6p4---6p4---6p4---6p4---6p4-----------6--4--4b4.5-------|
|--------------6-----6-----6-----6-----6---4~--6-------------6--6--|
|------------------------------------------------------------------|
|------------------------------------------------------------------|
           G
|--------------------------------------------------7--9-----------|
|---------/7-7-7--/7-7-7--/7-7-7--/7-7-7-7------9-----------------|
|---------/8-8-8--/8-8-8--/8-8-8--/8-8-8-8------------------------|
|--6s13\----------------------------------------------------------|
|-----------------------------------------------------------------|
|-----------------------------------------------------------------|
   D                                                    G
|-9b11--9b11--9b11rp7---------------7-------7-------7-------7----|
|-----------------------9--9---7h9-----7h9-----7h9-----7h9-------|
|----------------------------------------------------------------|
|----------------------------------------------------------------|
|----------------------------------------------------------------|
|----------------------------------------------------------------|
                                Cadd9
|-------7-------------------------4------------------|
|--7h9-----7h9p7------------------4--7--4------------|
|-----------------8\------4--6b8----------6b8rp4-----|
|------------------------------------------------6---|
|----------------------------------------------------|
|----------------------------------------------------|
             G             D               G
|----------------------------------------------------------------|
|-----------6b7r--4----------------------------------------------|
|-6--4~~----6b7r--4h5--------------------------------------------|
|----------------------6-4---------4-----------------------------|
|--------------------------6-5-4---------------------------------|
|--------------------------------7---7----14///////4-------------|
                        don't know part 2 of solo i don't use it.                  
G
But three days later
Cadd9
Went 'round to see her
G                         D
But she was with another guy
             G                         Cadd9
And I said fine, but I never asked her why
                   G            D                G
But since then loneliness has been a friend of mine
N.C                 
My friends say 
Such a pity, I'm sorry that you lost that girl x3
G  
She looks so fine
Such a pity, I'm sorry that you lost that girl 
Such a pity, I'm sorry that you lost that 
G                               D                      Cadd9
Dude it's such a pity and I'm sorry that you lost that girl
          D                       
And I'm sorry that you lost that

e|-------3-----------2-----------3-----------2h3-----|
B|-----0---0-------3---3-------1---1-------3-----3---|
G|---0-------0---4-------4---0-------0---2---------2-|
D|-------------------------------------0-------------|\
A|-------------2-----------3-------------------------| \ 
E|-3-------------------------------------------------|  \
   G          Bm           C           D                 \
                                       the first part of verse is intro     

e|-------3-----------2-----------3------------------|   /
B|-----0---0-------3---3-------1---1-------1-3-1----|  /
G|---0-------0---4-------4---0-------0---0-------0--| /
D|--------------------------------------------------|/
A|-------------2-----------3-----------3------------|
E|-3------------------------------------------------|


She walked in and said she didn't  
wanna know 
anymore (anymore, anymore)
Before i could ask why she was gone
out the door (out the door, out the door)

e|-------2-----------3-----------2-----------3-------|
B|-----3---3-------0---0-------3---3-------0---0-----|
G|---4-------4---0-------0---4-------4---0-------0---|
D|---------------------------------------------------|
A|-2-----------2-----------2-------------------------|
E|-------------------------------------0-------------|
G         D    Cadd9        D
I didn't know, what i did wrong
G    D               Cadd9
But now i just can't move on

"She left me"

e|-------3-----------2-----------3-----------2h3-----|
B|-----0---0-------3---3-------1---1-------3-----3---|
G|---0-------0---4-------4---0-------0---2---------2-|
D|-------------------------------------0-------------|
A|-------------2-----------3-------------------------|
E|-3-------------------------------------------------|
   G          Bm           C           D


e|-------2-----------0-----------3----------3-2-----|
B|-----3---3-------0---0-------1---1------------3---|
G|---4-------4---0-------0---0-------0---2--------2-|
D|-------------------------------------0------------|
A|-2-----------------------3------------------------|
E|-------------0------------------------------------|
   Bm                      C           D

“Then I knew…”

e|-------0-----------0-----------0------------------|
B|-----0---0-------0---0-------0---0-------0--------|
G|---0-------0---0-------0---0-------0---0---2------|
D|--------------------------------------------------|
A|-7-----------6-----------5-----------4------------|
E|--------------------------------------------------|
   Em

“Now I…”

e|-------3-----3-----5------------------------------|
B|-----1---1-----1-----4----------------------------|
G|---0-------0-----0-----5--------------------------|
D|--------------------------------------------------|
A|-3------------------------------------------------|
E|--------------------------------------------------|

“She's gone…”


(chorus in chords)
           G
Since she left me
        D
She told me
     Cadd9
Dont worry
D                       G
You'll be ok, you dont need me
D               Cadd9
Believe me you'll be fine
         G            Em
Then i knew what she meant
         D           Cadd9
and its not what she said 
    G         D               Cadd9
now i can't believe that shes gone


e|-------3-----------2-----------3------|
B|-----0---0-------3---3-------1---1----|
G|---0-------0---4-------4---0-------0--| [strum]D D D D D
D|--------------------------------------|
A|-------------2-----------3------------|
E|-3------------------------------------|

Vere two
same as verse 1

I tried calling her up on her phone
No ones there (no ones there, no ones home)
             (N.C)
I've left messages after the tone......
C
Really?
Cm
Yeah man loads
I didn't know, what i did wrong
But now i just cant move on

Chorus

Since she left me
she told me 
don't worry
you'll be ok you don't need me 
yeah, believe me you'll be fine
then i knew what she ment 
and it's not what he said
now i can't believe, she's gone

Guitar solo


          G  Bm                     C                       D
|--------------------------------------------------------------|
|--------------------------------------------------------------|
|----12--14b14rb14===--12----12-14-14b16rp12----12--12s14\-----|
|-14----------------------14-----------------14----------------|
|--------------------------------------------------------------|
|--------------------------------------------------------------|
          G                 Bm                  C          Cm
|----------------15-14-12--12h14p12-----------------------------|
|-----------------------------------15---12-15------------------|
|-----12-12~--12-------------------------------12~----12-14b16r-|
|-/14----------------------------------------------14-----------|
|---------------------------------------------------------------|
|---------------------------------------------------------------|
                     Bm                Em
|--------------------------------------------------------------|
|--------------------------------------------------------------|
|----------12h14---[14]b16r--12-11-12-12s14~----------12--14---|
|-12h13h14-----------------------------------------14----------|
|--------------------------------------------------------------|
|--------------------------------------------------------------|
  Bm                                    Em
|----------12--------------------------------------------------|
|-------12----15p12--------------------------------------------|
|-14b16-------------14b16rp12----12-14-14b16rp12---------------|
|-----------------------------14----------------14\------------|
|--------------------------------------------------------------|
|--------------------------------------------------------------|
          C
|--------------------------------------------------------------|
|--------------------------------------------------------------|
|--------------------------------------------------------------|
|-----12-12h14-12-12-12h14-12-12-12h14-12-12-12h14-12-12-------|
|-/14----------------------------------------------------------|
|--------------------------------------------------------------|
  G                                                  D
|--------------------------------------------------------------|
|---------------------------------------------------12-15-15-15|
|--------------------------------------------------------------|
|-12h14-12-12-12h14-12-12-12h14-12-12-12h14-12-12--------------|
|--------------------------------------------------------------|
|--------------------------------------------------------------|

|--------------------|
|-12-15--15b17--15\--|
|--------------------|
|--------------------|
|--------------------|
|--------------------|
|--------------------|

Chorus (has to be with chords)
           G
Since she left me
        D
She told me
     Cadd9
Dont worry
D                       G
You'll be ok, you dont need me
D               Cadd9
Believe me you'll be fine
         G            Em
Then i knew what she meant
         D           Cadd9
and its not what she said 
    G         D               Cadd9
now i can't believe that shes gone


e|-------3-----------2-----------3-----------2h3-----|
B|-----0---0-------3---3-------1---1-------3-----3---|
G|---0-------0---4-------4---0-------0---2---------2-|
D|-------------------------------------0-------------|
A|-------------2-----------3-------------------------| 
E|-3-------------------------------------------------|
   G          Bm           C           D              
                                           

e|-------3-----------2-----------3------------------| 
B|-----0---0-------3---3-------1---1-------1-3-1----| 
G|---0-------0---4-------4---0-------0---0-------0--| 
D|--------------------------------------------------|
A|-------------2-----------3-----------3------------|
E|-3------------------------------------------------|

thats it, thi is how i play it, but if you find you're own way, go for it
by T.J.C
Добавлено: 06.05.2012
Другие материалы по этой песне:
  • Аккорды и текст

Страница создана 06.05.2012
http://primanota.ru/mcfly/surf-medley-live-chords.htm
Привет, Гость.
Предлагаем пройти революционный курс по гитаре.
Подарок от PrimaNota.Ru, забирай!