PrimaNota.ru - самый крупный в мире бесплатный архив песенных текстов, аккордов, табулатур и нот


Mcfly - Just My Luck - аккорды и текст, таба, видео

Регистрация Запомнить меня
Войти через:  Facebook Google Twitter Vk Yandex Mail.ru

Mcfly - Just My Luck - аккорды и текст, таба, видео

Печатать
Просмотров: 176
Just My Luck
Mcfly
-----------------------------------------------------------------------------
                Just My Luck - McFly
-----------------------------------------------------------------------------
Tabbed by: FabioBlenderBR
 - Please rate and send me your feedback -


Intro:   G G/F# Em D Cadd9 D 
         G G/F# Em D Cadd9 D G

Intro Riff:
|-------------------------------------------|
|-15-----12-----10-----8----8--7--8--10-----|
|----14-----12-----11----9------------------|
|-------------------------------------------|
|-------------------------------------------|
|-------------------------------------------|

|-------------------------------------------|
|-15-----12-----10-----8----8--7--8--10--8--|
|----14-----12-----11----9------------------|
|-------------------------------------------|
|-------------------------------------------|
|-------------------------------------------|

Verse:

G       Bm      C           D
You and I have got a lot in common
G   Bm    C            D
We share all the same problems
Em                 A                 Dsus4 D
Luck and love and life aren't on our side

G   Bm       C                  D
I'm in the wrong place at the wrong time
G   Bm      C             D
Always the last one in a long line
Em           A                   Dsus4 D  C  B
Waiting for something to turn out right,  right

Chorus:

Cadd9 D          G   G/F# Em
I'm starting to fall in love
Cadd9  D           B
It's getting too much
Cadd9  D        G  G/F# Em
Not often that I slip  up
Cadd9  D       
It's just my luck

Intro: G G/F# Em D Cadd9 D G

Riff:
|-------------------------------------------|
|-15-----12-----10-----8----8--7--8--10--8--|
|----14-----12-----11----9------------------|
|-------------------------------------------|
|-------------------------------------------|
|-------------------------------------------|


Verse 2:

G    Bm         C             D
Rain clouds are gathering in numbers
G    Bm      C           D
Just when I put away my jumper
Em             A                 Dsus4 D
Luck and love still aren't on my side 


G Bm     C             D
I still refuse to be a skeptic
G        Bm  C              D
Cause I know I could still correct this
Em          A             Dsus4 D   C  B
Maybe this will be my lucky night,  night


Chorus:

Cadd9 D          G   G/F# Em
I'm starting to fall in love
Cadd9 D           B
It's getting too much
Cadd9    D          G G/F# Em
It's not often that I slip up
Cadd9 D       
It's just my luck

Post Chorus:   G Cadd9 G D


Bridge:

G             Cadd9         G             D
Just my luck, just my luck, just my luck, now 
G             Cadd9         G             D
Just my luck, just my luck, just my luck, now  (Something to turn out right)
G             Cadd9         G             D
Just my luck, just my luck, just my luck, now  (Waiting for something)
G             Cadd9         G             D
Just my luck, just my luck, just my luck, now  (I'm waiting for something, To turn out right)

Solo: Cadd9 D G G/F# Em Cadd9 D B 
      Cadd9 D G G/F# Em Cadd9   D


Chorus:
Cadd9 D          G   G/F# Em
I'm starting to fall in love
Cadd9 D           B
It's getting too much
Cadd9 D        G  G/F# Em
Not often that I slip  up
Cadd9 D      
It's just my luck

Intro:   G G/F# Em D Cadd9 D 
         G G/F# Em D Cadd9 D 

Intro Riff:
|-------------------------------------------|
|-15-----12-----10-----8----8--7--8--10-----|
|----14-----12-----11----9------------------|
|-------------------------------------------|
|-------------------------------------------|  2x
|-------------------------------------------|
     
Em  D  A  Cadd9    
Luuuuuuuuuuuuuuck


- Tabbed by Fabio-BlenderBR
- Don't forget to rate ;)

Добавлено: 22.06.2014
Другие материалы по этой песне:
  • Аккорды и текст

Страница создана 18.05.2012
http://primanota.ru/mcfly/just-my-luck-chords.htm
Привет, Гость.
Предлагаем пройти революционный курс по гитаре.
Подарок от PrimaNota.Ru, забирай!