PrimaNota.ru - самый крупный в мире бесплатный архив песенных текстов, аккордов, табулатур и нот


Mcfly - I Predict A Riot - текст песни, таба, видео

Регистрация Запомнить меня
Войти через:  Facebook Google Twitter Vk Yandex Mail.ru

Mcfly - I Predict A Riot - текст песни, таба, видео

Печатать
Просмотров: 141
-------------------------------------------------------------------------------
                             I Predict A Riot  -  McFly
-------------------------------------------------------------------------------
***Ive made adhustments to the chorus.... i wrote down the wrong thing.... i knew 
what i meant(5.2.06)***

Not a group that I would usually bother to tab, but I like this song. Performed
in Radio 1's live lounge on 26.10.05.

Tabbed by: Aron S*
Email: goodsum@hotmail.com
Tuning: Standard



Intro:

e|-------------------------------|
B|-------------------------------|
G|--5-5-5-5-5-5-5--8-8-8--7-7-7--| x2
D|--5-5-5-5-5-5-5--8-8-8--7-7-7--|
A|--3-3-3-3-3-3-3--6-6-6--5-5-5--|
E|-------------------------------|

e|-------------------------------------------------------------|
B|-------------------------------------------------------------|
G|-----------------------------------------------8-8-8--7-7-7--|
D|--6-6-6-6-6-6-6--5-5-5-5-5-5-5--3-3-3-3-3-3-3--8-8-8--7-7-7--|
A|--6-6-6-6-6-6-6--5-5-5-5-5-5-5--3-3-3-3-3-3-3--6-6-6--5-5-5--|
E|--4-4-4-4-4-4-4--3-3-3-3-3-3-3--1-1-1-1-1-1-1----------------|


Verse:

e|--------------------------------------------------------------------|
B|--------------------------------------------------------------------|
G|--5-5-5-5-5-5-5-5-5-5-5-5-5-5--8-8-8-8-8-8-8--10-10-10-10-10-10-10--| x4
D|--5-5-5-5-5-5-5-5-5-5-5-5-5-5--8-8-8-8-8-8-8--10-10-10-10-10-10-10--|  
A|--3-3-3-3-3-3-3-3-3-3-3-3-3-3--6-6-6-6-6-6-6---8--8--8--8--8--8--8--| (first 2 palm mute)
E|--------------------------------------------------------------------|

                                               2nd time only
e|---------------------------------------------|------------|
B|---------------------------------------------|------------|
G|--5-5-5-5-5-------------3-3-3-3-3------------|------------| x2
D|--5-5-5-5-5--5-5-5-5-5--3-3-3-3-3--3-3-3-3-3-|-3-3-3-3-3--|
A|--3-3-3-3-3--5-5-5-5-5--1-1-1-1-1--3-3-3-3-3-|-3-3-3-3-3--|
E|-------------3-3-3-3-3-------------1-1-1-1-1-|-1-1-1-1-1--|


Chorus:
                                             1st time only
e|--------------------------------------------|----------|
B|--------------------------------------------|----------|
G|-------------------6-6-6-6------------------|-6-6-6-6--|
D|--6-6-6-6-6-6-6-6--6-6-6-6--6-6-6-6-6-6-6-6-|-6-6-6-6--| x2
A|--6-6-6-6-6-6-6-6--4-4-4-4--6-6-6-6-6-6-6-6-|-4-4-4-4--|
E|--4-4-4-4-4-4-4-4-----------4-4-4-4-4-4-4-4-|----------|


Bridge:
                      {--palm mute--}
e|-------------------------------------|
B|-------------------------------------|
G|--7~--7-5~--5------------------------|
D|--7~--7-5~--5-8~--8-6-6-6-6-6-6-6-6--|
A|--5~--5-3~--3-8~--8-6-6-6-6-6-6-6-6--|
E|--------------6~--6-4-4-4-4-4-4-4-4--|


Verse 2:

e|----------------------------|
B|---5p3------6h8-------8h10--|
G|--5~-------8~-------10~-----| x2
D|--5~-------8~-------10~-----|  
A|--3~-------6~--------8~-----| 
E|----------------------------|
                                                   2nd time only 
e|---------------------------------------------|-----------------------------|
B|---------------------------------------------|-----------------------------|
G|--5-5-5-5-5-------------3-3-3-3-3------------|-----------------------------| x2
D|--5-5-5-5-5--5-5-5-5-5--3-3-3-3-3--3-3-3-3-3-|-3-3-3-3-3-3-3-3-3-3-3-3-----|
A|--3-3-3-3-3--5-5-5-5-5--1-1-1-1-1--3-3-3-3-3-|-3-3-3-3-3-3-3-3-3-3-3-3-etc-|
E|-------------3-3-3-3-3-------------1-1-1-1-1-|-1-1-1-1-1-1-1-1-1-1-1-1-----|


Bridge/Chorus Merge:
                                  {  this bit three times  }
e|-------------------------------|--------------------------|------|
B|-------------------------------|--------------------------|------|
G|--7~--7-5~--5----------6-6-6-6-|------------------6-6-6-6-|------|
D|--7~--7-5~--5-8~--8-6--6-6-6-6-|-6-6-6-6-6-6-6-6--6-6-6-6-|--6~--|
A|--5~--5-3~--3-8~--8-6--4-4-4-4-|-6-6-6-6-6-6-6-6--4-4-4-4-|--6~--|
E|--------------6~--6-4----------|-4-4-4-4-4-4-4-4----------|--4~--|


It goes:

Intro
Verse
Chorus
Verse
Chorus
Bridge
Intro
Verse 2
Chorus
Bridge/Chorus Merge
Добавлено: 29.04.2012
Другие материалы по этой песне:
  • Аккорды и текст

Страница создана 27.04.2012
http://primanota.ru/mcfly/i-predict-a-riot-chords.htm
Привет, Гость.
Предлагаем пройти революционный курс по гитаре.
Подарок от PrimaNota.Ru, забирай!