PrimaNota.ru - самый крупный в мире бесплатный архив песенных текстов, аккордов, табулатур и нот


Mccoys - Beat The Clock - аккорды и текст, таба, видео

Регистрация Запомнить меня
Войти через:  Facebook Google Twitter Vk Yandex Mail.ru

Mccoys - Beat The Clock - аккорды и текст, таба, видео

Печатать
Просмотров: 102
Beat The Clock
Mccoys



From: Andrew Rogers 
Date: Wed, 20 May 1998 13:04:45 -0400
Subject: m/mccoys/beat_the_clock.crd

                            Beat The Clock
                          (Gottehrer - Stroll)

Intro:

	harpsichord w/percussion:

	Em
	/ / / /  / / / /

Verse:

	Em       Em/maj7
	Beat ..
	Em7            Em6   Cm6
	Try ..
	 Em                G                Am
	Time ..
	        B7
	To ..

	[bass enters]

	 Em      Em/maj7
	Beat ..
	Em7            Em6
	Try...
	         C6
	Tell ..
	            B7
	Before ..

Chorus 1:

	          Em          G
	That..
	                            D/F#
	And ..
	          Em              G
	You..
	                      D/F#
	In ..
	     Em                  D  C
	You ..
	     D    Em                         D     C                D
	You ..

	1: piano w/strings:

	 Em     Em7/D    C#m7-5    Cm6 
	 / / / /  / / / /  / / / /  / / / /

[repeat verse]

Chorus 2:

Guitar solo:

	Em     Em7/D    C#m7-5    Cm6       [2X; harpsichord enters 2nd time]
	/ / / /  / / / /  / / / /  / / / /

	Em
	/ . . .  . . . .

Instrumental break (2:22) [2X]:

	bass:

	 v   v   v   v     v   v   v   v
	---------4-------|-----------------
	-2-4-5-2-----5-4-|-5---4-2-4-2-0-4-
	-----------------|-----------------
	-----------------|-----------------

	 v   v   v   v     v   v   v   v
	---------4-------|-----------------
	-2-4-5-2-----5-4-|-5-4-0-4-2-------
	-----------------|-----------------
	-----------------|-----------------

	guitar 1 [first line tacit first time]

	 v   v   v   v     v   v   v   v
	---------7-------|-----------------
	---7-8-------8-7-|-8---7---7-----7-
	-9-----9---------|-------9---9-7---
	-----------------|-----------------
	-----------------|-----------------
	-----------------|-----------------

	 v   v   v   v     v   v   v   v
	---------7-------|-----------------
	---7-8-------8-7-|-8-7---7---------
	-9-----9---------|-----7---9-------
	-----------------|-----------------
	-----------------|-----------------
	-----------------|-----------------

	guitar 2 [tacit first time; second line doubled by harpsichord
	          second time]:

	 v   v   v   v     v   v   v   v
	-----7-8-10--7---|-7---------------
	-8-10----------10|----10-810-8-7-10
	-----------------|-----------------
	-----------------|-----------------
	-----------------|-----------------
	-----------------|-----------------

	 v   v   v   v     v   v   v   v
	-----7-8-10--8-7-|-8-7---7---------
	-8-10------------|-----8---8-------
	-----------------|-----------------
	-----------------|-----------------
	-----------------|-----------------
	-----------------|-----------------

[repeat verse]

[repeat chorus 1]

Coda [repeat to fade]:

	harpsichord w/percussion:

	Em     Em/maj7     Em7       Em6 Cm6
	/ / / /   / / / /   / / / /   / / / /


-- another ace 60's tab from Andrew Rogers


Добавлено: 14.12.2013
Другие материалы по этой песне:
  • Аккорды и текст

Страница создана 23.04.2012
http://primanota.ru/mccoys/beat-the-clock-chords.htm
Привет, Гость.
Предлагаем пройти революционный курс по гитаре.
Подарок от PrimaNota.Ru, забирай!