PrimaNota.ru - самый крупный в мире бесплатный архив песенных текстов, аккордов, табулатур и нот


Mccarthy - An Mp Speaks - бас-таба, видео

Регистрация Запомнить меня
Войти через:  Facebook Google Twitter Vk Yandex Mail.ru

Mccarthy - An Mp Speaks - бас-таба, видео

Печатать
Просмотров: 37
-------------------------------------------------------------------------------
                         AN MP SPEAKS - McCarthy
-------------------------------------------------------------------------------
Tabbed by: SPLAM!
Bassist: John Williamson
Tuning: EADG

Main Riff (begins at 0:00)
  1 + 2 + 3 + 4 +  1 + 2 + 3 + 4 +  1 + 2 + 3 + 4 +  1 + 2 + 3 + 4 + 
G|----------------|----------------|----------------|----------------|
D|----------------|----------------|----------------|----------------|
A|5.----5-5-3---3-|5.----5-5-3-----|----------------|--------------3-|
E|----------------|--------------5-|3.----3-3/5--\3-|1.----1-1-3-----|

Chorus
  1 + 2 + 3 + 4 +  1 + 2 + 3 + 4 + 
G|----------------|----------------|
D|2.----2-2-------|----------------|
A|----------5---3-|----------------|
E|----------------|6---6-6-5---5-5-|

Bridge
  1 + 2 + 3 + 4 +  1 + 2 +   3 + 4 +  1 + 2 + 3 + 4 +  1 + 2 + 3 + 4 + 
G|----------------|--------------9---|----4-----4-----|----------------|
D|7.----7-6.----6-|4.----4h6h7-----7-|4-----4-----4---|----------------|
A|----------------|------------------|----------------|----------------|x2
E|----------------|------------------|----------------|5---5---3-------|
Then play the Verse two times, then play the Chorus to the end.

| .  dotted note
| /  slide up
| \  slide down
| h  hammer-on
===============================================================================
Добавлено: 25.05.2016
Вам также может быть интересно:
Другие материалы по этой песне:
  • Аккорды и текст

Страница создана 25.05.2016
http://primanota.ru/mccarthy/an-mp-speaks-chords.htm
Привет, Гость.
Предлагаем пройти революционный курс по гитаре.
Подарок от PrimaNota.Ru, забирай!