PrimaNota.ru - самый крупный в мире бесплатный архив песенных текстов, аккордов, табулатур и нот


Mccallum Tracy - Tell Me The Story Of Jesus - таба, видео

Регистрация Запомнить меня
Войти через:  Facebook Google Twitter Vk Yandex Mail.ru

Mccallum Tracy - Tell Me The Story Of Jesus - таба, видео

Печатать
Просмотров: 63
    q  E  s  q  E  S     q  q  q  q     q  E  s  q  E  s               
E---------------------|--------------|--------------------|-------------
B---0--0--------0--1--|--3-----0-----|--------0--1--0-----|-------------
G---------2--0--------|--------------|--2--2-----------2--|-------------
D------0--------------|-----0--------|--------------------|-------------
A---------------2-----|-----------2--|-----3--------0-----|-------------
E---3--------3--------|--3-----3-----|--2--------2--------|-------------
                                                                       

    q  q  q  q     q  E  s  q  E  s     q  q  q  q                     
E---------------|-----------------0--|--------------|-------------------
B---0-----------|--0--0--0--1--3-----|--3-----0-----|-------------------
G---------------|--------------------|--------------|-------------------
D------0--------|-----0--------------|-----0--------|-------------------
A------------2--|--------------2-----|-----------2--|-------------------
E---3-----3-----|--3--------3--------|--3-----3-----|-------------------
                                                                       

    q  E  S  q  E  s     q  q  q  q     q  E  s  q  E  s               
E---------------------|--------------|--0--0--0--3--2--0--|-------------
B---3-----0--1--0-----|--0-----------|--------------------|-------------
G------2-----------2--|--------------|-----0--------------|-------------
D---------------------|-----0--------|--------------2-----|-------------
A------3--------0-----|-----------2--|--3--------3--------|-------------
E---2--------2--------|--3-----3-----|--------------------|-------------
                                                                       

    q  q  q  q     q  E  s  q  E  s     q  q  q  q                     
E---0-----------|-----0--------------|--------------|-------------------
B---------3-----|--3-----3--1--3--1--|--0-----------|-------------------
G---------------|--------------------|--------------|-------------------
D------0--------|--------------------|-----0--------|-------------------
A------------2--|-----3--------0-----|-----------2--|-------------------
E---3-----3-----|--2--------2--------|--3-----3-----|-------------------
                                                                       

    q  E  s  q  E  s     q  q  q  q     q  E  s  e  e  E  s            
E---0--0--0--3--2--0--|--0-----------|-----------2--0--------|----------
B---------------------|--------3-----|--3-----0--------3--2--|----------
G------0--------------|--------------|-----2-----------------|----------
D---------------2-----|-----0--------|-----------------------|----------
A---3--------3--------|-----------2--|-----3-----------0-----|----------
E---------------------|--3-----3-----|--2--------2-----------|----------
                                                                       

    q  q  q  q     q  E  s  q  E  s     q  q  q  q                     
E---------------|--------------------|--------------|-------------------
B---3-----1-----|--0--0--------0--1--|--3-----0-----|-------------------
G---------------|--------2--0--------|--------------|-------------------
D------0--------|-----0--------------|-----0--------|-------------------
A------------0--|--------------2-----|-----------2--|-------------------
E---3-----2-----|--3--------3--------|--3-----3-----|-------------------
                                                                       

    q  E  s  q  E  s     q  q  q  q     q  E  s  q  E  s               
E---------------------|--------------|-----------------0--|-------------
B---------0--1--0-----|--0-----------|--0--0--0--1--3-----|-------------
G---2--2-----------2--|--------------|--------------------|-------------
D---------------------|-----0--------|-----0--------------|-------------
A------3--------0-----|-----------2--|--------------2-----|-------------
E---2--------2--------|--3-----3-----|--3--------3--------|-------------
                                                                       

    q  q  q  q     q  E  s  q  E  s     q  q  h   2x                   
E---------------|--------------------|------------||--------------------
B---3-----0-----|--3-----0--1--0-----|------------||--------------------
G---------------|-----2-----------2--|--0--------*||--------------------
D------0--------|--------------------|-----0-----*||--------------------
A------------2--|-----3--------0-----|------------||--------------------
E---3-----3-----|--2--------2--------|--3-----3---||--------------------
                                                                       


=3D=3D                       TABLATURE EXPLANATION                       =

----------                ----------                ----t---
----5h8--- Hammeron       ----(8)--- Ghost          ----6--- Tap
----------                ---------- Note           --------
----5p8--- Pulloff        ----------                --------

----------                ----------                -----p--
----5/8--- Slide Up       -----x---- Dead           -----7-- Pop
----------                ---------- Note           --s-----
----5\8--- Slide Down     ----------                --5----- Slap

----------                ||------|| Repeat         --------
----5~~~-- Vibrato        ||*----*||                ---5^--- Bend
----------                ||*----*||                --------
----------                ||------||                --------

----------                ----------                --------
-4:------- Time           ----------                --------
-4:------- Signature      ----------                --------
----------                ----------                --------

Rhythm:
  w =3D whole note            W =3D dotted whole
  h =3D half note             H =3D dotted half
  q =3D quarter note          Q =3D dotted quarter
  e =3D eighth note           E =3D dotted eighth
  s =3D sixteenth note        S =3D dotted sixteenth
  t =3D 32nd note             T =3D dotted 32nd
  x =3D 64th note             X =3D dotted 64th
  ^ =3D triplet

=3D=3D            Created with a demo version of BUCKET O' TAB           =
 =3D=3D
=3D=3D              tablature creation software for Windows              =
 =3D=3D
=3D=3D                  For more info email gse@his.com                  =
     
Добавлено: 20.09.2013
Другие материалы по этой песне:
  • Аккорды и текст

Страница создана 20.09.2013
http://primanota.ru/mccallum-tracy/tell-me-the-story-of-jesus-chords.htm
Привет, Гость.
Предлагаем пройти революционный курс по гитаре.
Подарок от PrimaNota.Ru, забирай!