PrimaNota.ru - самый крупный в мире бесплатный архив песенных текстов, аккордов, табулатур и нот


Mccafferty - Alligator Skin Boots - таба, видео

Регистрация Запомнить меня
Войти через:  Facebook Google Twitter Vk Yandex Mail.ru

Mccafferty - Alligator Skin Boots - таба, видео

Печатать
Просмотров: 57
Уроки эстрадного вокала в Санкт-Петербурге
-------------------------------------------------------------------------------
                             Alligator Skin Boots - McCafferty
-------------------------------------------------------------------------------
Tabbed by: Stallman Torvalds


Tuning: Standard

E|--------------------------------------------------------------------------------------------------------|
B|--------------------------------------------------------------------------------------------------------|
G|--------------------------------------------------------------------------------------------------------|
D|--------------------------------------------------------------------0-----------------------2-----------|
A|-----0--4--0-----0--4--0-----0--4--0-----0--4--0-----0--4--0-----0-----4-----0--4--0-----0-----4-----0--|
E|--2-----------2-----------2-----------2-----------0-----------0-----------0-----------0-----------5-----|


E|--------------------------------------------------------------------------------------------------|
B|--------------------------------------------------------------------------------------------------|
G|--------------------------------------------------------------------------------------------------|
D|--------------------------------------------------------------------------------------------------|
A|-----0--4--0-----0--4--0-----0--4--0-----0--4--0-----0--4--0-----0--4--0-----0--4--0-----0--4--0--|
E|--5-----------5-----------5-----------5-----------4-----------4-----------4-----------4-----------|
Добавлено: 17.11.2015
Другие материалы по этой песне:
  • Аккорды и текст

Страница создана 17.11.2015
http://primanota.ru/mccafferty/alligator-skin-boots-chords.htm
Привет, Гость.
Предлагаем пройти революционный курс по гитаре.
Подарок от PrimaNota.Ru, забирай!