PrimaNota.ru - самый крупный в мире бесплатный архив песенных текстов, аккордов, табулатур и нот


Mc5 - I can only give you everything - таба, видео

Регистрация Запомнить меня
Войти через:  Facebook Google Twitter Vk Yandex Mail.ru

Mc5 - I can only give you everything - таба, видео

Печатать
Просмотров: 139
Уроки эстрадного вокала в Санкт-Петербурге
Авторы: Phil Coulter, Tommy Scott



I Can Only Give You Everything
          by: MC5

INTRO/Verse-

e----------------------------------|
B----------------------------------|
G----------------------------------|
D--------5------------5------------|
A------5------------5--------------|
E--5-5-----5----5-5-----5----------|

Then...
     C                D
e------------------------------------|
B------------------------------------|
G--5-5-5-5---------7-7-7-7-----------| X2
D--5-5-5-5---------7-7-7-7-----------|
A--3-3-3-3---------5-5-5-5-----------|
E------------------------------------|
  i try            and i try

Then back to the intro/verse then there's a solo but i don't know it, sorry but this is my first tab.
After the solo it goes back to the intro/verse and then it goes to this...

e----------------------------------|
B----------------------------------|
G----------------------------------|
D--------7----------7--------------|
A------7----------7----------------|
E--7-7----7---7-7----7-------------|

then back to the intro/verse and that's pretty much the whole song.

Добавлено: 05.09.2013
Вам также может быть интересно:
Другие материалы по этой песне:
  • Аккорды и текст

Страница создана 05.09.2013
http://primanota.ru/mc5/i-can-only-give-you-everything-chords.htm
Привет, Гость.
Предлагаем пройти революционный курс по гитаре.
Подарок от PrimaNota.Ru, забирай!