PrimaNota.ru - самый крупный в мире бесплатный архив песенных текстов, аккордов, табулатур и нот


Mc Lars - Download This Song - аккорды и текст, таба, видео

Регистрация Запомнить меня
Войти через:  Facebook Google Twitter Vk Yandex Mail.ru

Mc Lars - Download This Song - аккорды и текст, таба, видео

Печатать
Просмотров: 148
Download This Song
Mc Lars
Song: Download This Song
Tab Type: Chords
Tuning: Standard


Intro

Bm G D A
Bm G D A
Bm G D A
Bm G D A

Bm    G     D         A
La la la la la la la la 
Bm    G     D         A
La la la la la la la la 
Bm    G     D         A
La la la la la la la la 


Little guitar part after all the la la la la's

E|--------------|
B|--------------|
G|--2-----------|
D|-----4--0--2--|
A|--------------|
E|--------------|


1st Verse

Bm               G                
It's 2006, the consumer's still pissed 
D                         A
Won't take it anymore so I'm writing a list 
Bm               G
Don't try to resist this paradigm shift 
D                         A
The music revolution cannot be dismissed 
Bm               G
$18.98 Iggy Pop CD? 
D                         A
What if I can get it from my sister for free? 
Bm               G
It's all about marketing Clive Davis, see? 
D                         A
If fans buy the shirt then they get the mp3 
Bm               G
Music was a product now it is a service 
D                         A
Major record labels why are you trying to hurt us? 
Bm               G
Epic's up in my face like, “Don't steal our songs Lars,” 
D                         A
While Sony sells the burners that are burning CD-R's 
Bm               G
So Warner, EMI, hear me clearly 
D                         A
Universal Music, update your circuitry 
Bm               G
They sue little kids downloading hit songs 
D                         
They think that makes sense 
A
When they know that it's wrong 


Bridge

Bm      G
Hey Mr. Record Man 
D             A
The joke's on you 
Bm      G
Running your label 
D             A
Like it was 1992 
Bm      G
Hey Mr. Record Man, 
D                 A
Your system can't compete 
Bm                  G
It's the New Artist Model 
D             A
File transfer complete 


Chorus

Bm    G     D        A
La la la la la la la la Download this song! 
Bm    G     D        A
La la la la la la la la Download this song! 
Bm    G     D        A
La la la la la la la la Download this song! 

E|--------------|
B|--------------|
G|--2-----------|
D|-----4--0--2--|
A|--------------|
E|--------------|

2nd Verse

Bm                       G       
I know I'm rhyming fast, but the message is clear 
D                                A
You don't need a million dollars to launch a career 
Bm                       G
If your style is unique and you practice what you preach 
D                        A
Minor Threat and Jello both have things to teach! 
Bm                       G
I've got G5 production, concept videos 
D                        A
Touring with a laptop, rocking packed shows 
Bm                       G
The old-school major deal? It makes no sense 
D                        A
Indentured servitude, the costs are too immense! 
Bm                       G
Their finger's in the dam but the crack keeps on growing 
D                        A
Can't sell bottled water when it's freely flowing 
Bm                       G
Record sales slipping, down 8 percent 
D                        A
Increased download sales, you can't prevent 
Bm                       G
Satellite radio and video games 
D                        A
Changed the terrain, it will never be same 
Bm                       G
Did you know in ten years labels won't exist? 
D                        A
Goodbye DVD's, and compact disks! 


Bridge

Bm      G
Hey Mr. Record Man 
D             A
The joke's on you 
Bm      G
Running your label 
D             A
Like it was 1992 
Bm      G
Hey Mr. Record Man, 
D                 A
Your system can't compete 
Bm                  G
It's the New Artist Model 
D             A
File transfer complete 


Chorus
Bm    G     D        A
La la la la la la la la Download this song! 
Bm    G     D        A
La la la la la la la la Download this song! 
Bm    G     D        A
La la la la la la la la Download this song! 

2nd Bridge

E|-----------------|
B|-----------------|
G|--2--------------|
D|-----4--0--2--0--|
A|-----------------|
E|-----------------| 


|----------12-------|
|--------11---------|
|------11-----------|
|-------------------|
|-------------------|
|-------------------|
You know, we just wanted a level playing field. 

|-------------------------------|
|12-10-12------------10-12-10---|
|-------------------------------|
|-------------------------------|
|-------------------------------|
|-------------------------------|
You've overcharged us for music for years, and now we're 

                                                               x16
|----------------------------10---------------10--------------|----|
|-----------------------10-12------12-10-12-10----------------|-12-|
|----------------------------------------------------------10-|----|
|-------------------------------------------------------11----|----|
|-------------------------------------------------------------|----|
|-------------------------------------------------------------|----|
Just trying to find a fair balance. I hate to say it, but… 

Welcome to the future. 


Chorus

Bm    G     D        A
La la la la la la la la Download this song! 
Bm    G     D        A
La la la la la la la la Download this song! 
Bm    G     D        A
La la la la la la la la Download this song!

E|----------------|
B|----------------|
G|--2-------------|
D|-----4--0--2----|
A|----------------|
E|----------------| 


Bridge

Bm      G
Hey Mr. Record Man 
D             A
The joke's on you 
Bm      G
Running your label 
D             A
Like it was 1992 
Bm      G
Hey Mr. Record Man, 
D                 A
Your system can't compete 

E|----------------|
B|----------------|
G|--2-------------|
D|-----4--0--2----|
A|----------------|
E|----------------|

Bm                  G
It's the New Artist Model 
D             A
File transfer complete 


Outro

Bm    G     D         A
La la la la la la la la 
Bm    G     D         A
La la la la la la la la 
Bm    G     D         A
La la la la la la la la

E|-----------------|
B|-----------------|
G|--2--------------|
D|-----4--0--2--0--|
A|-----------------|
E|-----------------|

Bm    G     D         A
La la la la la la la la 
Bm    G     D         A
La la la la la la la la 
Bm    G     D         A
La la la la la la la la

E|-----------------|
B|-----------------|
G|--2--------------|
D|-----4--0--2--0--|
A|-----------------|
E|-----------------|


And thats.. This should be around the 100% correct mark. All ear transcribed any my own original work.

Any questions or edits etc. Feel free to e-mail them at "MadMan__INc@hotmail.com"
Добавлено: 10.05.2012
Другие материалы по этой песне:
  • Аккорды и текст

Страница создана 08.04.2012
http://primanota.ru/mc-lars/download-this-song-chords.htm
Привет, Гость.
Предлагаем пройти революционный курс по гитаре.
Подарок от PrimaNota.Ru, забирай!