PrimaNota.ru - самый крупный в мире бесплатный архив песенных текстов, аккордов, табулатур и нот


Mazzy Star - Mary of Silence - текст песни, бас-таба, видео

Регистрация Запомнить меня
Войти через:  Facebook Google Twitter Vk Yandex Mail.ru

Mazzy Star - Mary of Silence - текст песни, бас-таба, видео

Печатать
Просмотров: 138
-------------------------------------------------------------------------------
                             SONG NAME - Band Name
-------------------------------------------------------------------------------
Tabbed by: 
E-mail: 

Tuning:EADG

Intro 00:00-00:19 

G|-12/14----12h14p12\9-------------------10------9-9----9---9--9-9-9---------|
D|----------------------12-10-p-0--12h12----12--------0---0------------------|
A|------------------------------0--------------------------------------------|
E|---------------------------------------------------------------------------|

00:26-01:25  Riff 1                       (riff 1 ending)01:22..Take me into your skin

G|---------------------------------------------------------------------------|
D|--3-------------------------3-3-----------------2-3----3-2/5---------------|
A|----5-----3-5----3-5---3-5-------5-------3--5-5----------------------------|
E|---------------------------------------------------------------------------|

01:31-01:41

G|---------------------------------------------------------------------------|
D|-----------------------2-3---3-3-2------3-2-3-2----------------------------|
A|--5--3--5-5---0--3--5----------------------------5---------+---------------|
E|---------------------------------------------------------------------------|

01:43 repeat riff 1  ...We have a steady confussion  02:07 repeat riff 1 ending
G|---------------------------------------------------------------------------|
D|--3-------------------------3-3-----------------2-3----3-2/5---------------|
A|----5-----3-5----3-5---3-5-------5-------3--5-5----------------------------|
E|---------------------------------------------------------------------------|

02:18    Oh, Sleeping Mary of Silence

G|---------------------------------------------------------------------------|
D|------2-3----3-2/5---------------------------------------------------------|
A|---5------------------3-5---3-5-5---0--3--5--------------------------------|
E|---------------------------------------------------------------------------|

02:35 guitar starts to solo in the back    02:52-03:09 
(repeat while the guitar goes nuts in the back)

G|---------------------------------------------------------------------------|
D|--3-------------------------3-3-----------------2-3----3-2-----------------|
A|----5-----3-5----3-5---3-5-------5-------3--5-5---------------3--5---------|
E|---------------------------------------------------------------------------|

03:10-03:33 Help me walk with you.. 

G|---------------------------------------------------------------------------|
D|--3------------------------2-3----3-2--------------------------------------|
A|----5-----3-5-----3--5-5---------------3--5--------------------------------|
E|---------------------------------------------------------------------------|



03:38                                         03:52

G|---------------------------------------------------------------------------|
D|--3----------------------------3---------------------2-3----3-2/5----------|
A|-----5----3--5---3--5---3-5-5-----5----------------5---------------5-------|
E|---------------------------------------------------------------------------|


04:12  guitar starts to shred again in the back 04:35-04:57
                                                 |(repeat from here 3x times)
G|-----------------------------------------------|------------------------------|
D|-----------------------------------------------|---2-3----3-2-----------------|
A|--3--5-----3--5----3--5----3---5-------5-----3-|-5---------------3/5----------|
E|-----------------------------------------------|------------------------------|


05:00-05:11

G|---------------------------------------------------------------------------|
D|-/3---------------------3----------------------------3---------------------|
A|------5---3-5---3-5-5--------5----3-5-----0--3--5-5------------------------|
E|---------------------------------------------------------------------------|

05:11                       05:16             after this the bass is silent until the end at 06:02


G|------------------------------10---9-----7-------------------------------------|
D|---8/7---7/5---5/3--2-------0----0---------------------------------------------|
A|--------------------------------------5-----5----------------------------------|
E|-------------------------------------------------------------------------------|


| /  slide up
| \  slide down
| h  hammer-on
| p  pull-off
| ~  vibrato
| +  harmonic
| x  Mute note
===============================================================================
Добавлено: 16.07.2015
Другие материалы по этой песне:
  • Аккорды и текст

Страница создана 23.04.2012
http://primanota.ru/mazzy-star/mary-of-silence-chords.htm
Привет, Гость.
Предлагаем пройти революционный курс по гитаре.
Подарок от PrimaNota.Ru, забирай!