PrimaNota.ru - самый крупный в мире бесплатный архив песенных текстов, аккордов, табулатур и нот


Mazas F - Brilliant Studies - таба, видео

Регистрация Запомнить меня
Войти через:  Facebook Google Twitter Vk Yandex Mail.ru

Mazas F - Brilliant Studies - таба, видео

Печатать
Просмотров: 87
e: Wed, 18 Mar 1998 18:23:12 -0800
!From: Judy Letostak 
Subject: TAB:F. Mazas - Brilliant Studies

F. Mazas - Op.36 A first in the 75 Melodious and Progressive Studies
for the Violin adapted for the electric guitar
letostak@ix.netcom.com (Judy Letostak)
Metal Edge (619)423-4970 24/7 Guitar/Bass/Drum tab, MP3s

Maintain a smooth legato feel througout.

-----------------|----------------|-------------------------
-----------------|----------------|-----------------5-------
-----------5-----|-----------5----|--------4--5--7-----7----
---5-------------|---5------------|--5--7-------------------
--------7--------|--------7-------|-------------------------
-----------------|----------------|-------------------------

=====3====    ===3====    ====3===
------------------------------------|----------------------|
------------------------------------|----------------------|
--7--5--4-----4---------------------|----------------------|
-----------------7--5-----5---------|--5-----------5-------|
-----------------------------8--7---|-----8--7--8-----5----|
------------------------------------|----------------------|


------------------------|----------------------------------|
------------------------|----------------------------------|
---------------------4--|---------------------------------4|
--5tie5--3--0-----------|--5tie5-----------5---------------|
---------------2--------|---------8--7--8-----8--5\2-------|
------------------3-----|-----------------------------3----|


---------------------------------------------|--------------
------------------5--6-----------------------|--------------
---------4--5--7--------7--4-----------------|--------------
--5---7-----------------------5--------7--5--|-5tie5------5-
---------------------------------8--5--------|--------8-7---
---------------------------------------------|--------------


---------------|----------------------------|---------------
---------------|----------------------------|---------------
---------------|----------------------------|---------------
---------------|----------------------------|---------------
--8---7--------|--3tie3--5p3p2h3h4h5p2p0----|--/7tie7h8p7p6-
-----------3---|--------------------------3-|---------------


-----------------|------------------------------|-----------
-----------------|------------------------------|-----------
-----------------|------------------------------|-----------
----5------------|---5---------------------6h7--|-----------
-h7----8--8\3p2--|------7----------4h5h7/8------|-------5---
-----------------|--------8--7--5---------------|--8--7---8-


------|----------------------------|-----------------------|
------|----------------------------|-----------------------|
------|----------------------------|-----------------------|
------|----------------------------|--------------5--------|
------|---------5----------5-------|--7tie7-8-7p6---8-5----|
-8/3--|--8tie8-----8p7h8h9---7p5\3-|--------------------8-7|


--------------------------|--------------------------------|
--------------------------|-------------5-8-6-5------------|
--------------------------|-----------5---------4----------|
-5tie5--------------------|-------2/5-------------5--------|
-------8--7tie7p5---------|---2-3-------------------8-5/2--|
------------------8-8p7p5-|-3-----------------------------3|


--------------|-------5-------8------|----------5-----------
--------------|-8---8---8p7h8---5-6--|--7-8tie8---8p7h8p5---
--------------|----------------------|----------------------
--------------|----------------------|----------------------
-5-----7-5----|----------------------|----------------------
-----8-----8--|----------------------|----------------------


-------|------------------------------|--------------------|
-------|--4tie4-5-6-5-----------------|--------------------|
--5-7--|--------------7-5-4-----------|--------------------|
-------|--------------------7-5h6-7---|-5tie5-------5------|
-------|----------------------------7-|-------8p7h8---8--5-|
-------|------------------------------|--------------------|


----------------/10------|-----------------------|----------
--6tie6h8p6p5h6-------4--|-5--6tie6-8-6-5-6------|----------
--------------------7----|------------------7----|-6tie6h7--
-------------------------|--------------------5-7|----------
-------------------------|-----------------------|----------
-------------------------|-----------------------|----------



----------------------|-----------------------------|-------
-5--------------------|-----------------------------|--5----
---7p5p4--------------|-----------------------------|----5--
---------7p5p4h5h7----|------------------------3-2--|-------
-------------------5--|--6--6h8p6h7h8\5---5---------|-------
----------------------|-----------------7---3-------|-------


-------7-5--|--5p4h5h7----------|--------------------------|
------------|-----------6--5p4--|-4h5-------5h8p6p5--------|
--4---------|-------------------|-----4h5-7----------------|
----7-------|-------------------|--------------------------|
------------|-------------------|--------------------------|
------------|-------------------|--------------------------|


--------------------|---------------------------------------
-5--5------4h5------|---------------------------------------
------7--5-----5----|-----------------4-------4h5p4---4h5---
-----------------7--|---4h5p4---4h5h7---7p6h7-------7-------
--------------------|---------7-----------------------------
--------------------|---------------------------------------


-------------|---------7p5--5------------------|------------
-5h7p5\4/5h7-|-7---7h8--------8--8p7--7p5--5p4-|-4--4h5h8p7-
-------------|---------------------------------|------------
-------------|---------------------------------|------------
-------------|---------------------------------|------------
-------------|---------------------------------|------------


----------------------|------------------------------------|
--7p5--5--------------|--------5---------------------------|
---------7--7p5--5p4--|-4--4h5---7--7p5--5p4--4------------|
----------------------|-------------------------7--7p5-----|
----------------------|------------------------------------|
----------------------|------------------------------------|


------------------------|----------------------------------|
-------------4----------|----8-----5-----------------------|
---------5--------7--5--|--------------------------4-------|
---5---7----------------|-5-----7-----5h7p5-----5----7-----|
-----7------------------|-------------------7h8------------|
------------------------|----------------------------------|


--------|-----------------|------------------|--------------
--------|-----------------|------------------|--------------
--------|-----------7p5---|--5p4-------------|--------------
--5-----|---6p5---7-------|------7--7--5-----|--------------
--------|-------6---------|--------------8---|-6h8p6\4/6h8--
--------|-----------------|------------------|--------------


------------|-------------------|--------------------------|
------------|-------------------|--------------------------|
------------|-------------------|--------------5-----------|
-5----------|--------------7p5--|-5------------------------|
------6--5--|----------5h7------|-------7------------------|
---5--------|--8-7\3/7----------|--------------------------|


--------------------------|---------------------------------
---------8--4h5-----------|----------------5----------------
-----------------4h7h5----|---------4h5h7----7-7p5p4--4-----
--5--------------------7--|--5--5h7---------------------7p5-
------7-------------------|---------------------------------
--------------------------|---------------------------------


-------|----------------------|----------------------------|
-------|----------------------|----------------------------|
-------|----------------------|-----------------4----------|
-5-----|--5---5-------5-------|--5---5---------------------|
---8p7-|--------8-7h8---8--5--|--------8-5-----------------|
-------|----------------------|------------7\3-------------|


-----------------------------|------------------------------|
-----------------------------|-----------5h6----------------|
--------------------------4--|-----4h5h7-----7p4------------|
--5---5-------5--------------|-5h7---------------5------7p5-|
--------8p7h8---8-5----------|---------------------8p5------|
--------------------7\3/-----|------------------------------|


--------------------|------------------------|--------------
--------------------|------------------------|--------------
--------------------|------------------------|--------------
-5--5-----5---------|------------------------|--------------
------8p7---8p7-\---|------5-------4-5-------|--7--7h8p7\4/7
-----------------3--|-8--8---8p7h8-----8p5\3-|--------------


------------|------------------------|----------------------
------------|------------------------|-------------5h8p6----
------------|------------------------|-----------5-------7p4
-5----------|-5--5-------------------|---------5------------
---8p5------|------8p7--7p5----------|---2h3/7--------------
-------8p7--|---------------8-8p7p5--|-3--------------------


-------------|----------|------------|---------------------|
-------------|----------|------------|-----------5--6------|
-------------|----------|-3----------|---------7-----------|
--5----------|----------|-------7-6--|-6--7--7-------------|
----8p5------|-/5-------|------------|---------------------|
--------8\3--|-------8--|------------|---------------------|


-------------------|----------------------------|----------|
-6-----------------|--------------8-p5----------|----------|
----4--7-----------|-------------------5--------|----------|
-------------7--5--|-5--5------5---------5------|----------|
-----------8-------|------8--7-------------7----|----------|
-------------------|-------------------------8--|-6---5--4-|


--------------------|-------5tr7----|--8-------------------|
--------------------|---------------|----8--4h5------------|
--------------------|---------------|-----------4--7p5-----|
---------------5h7--|---------------|------------------7---|
---------5h7h8------|---------------|----------------------|
-4--5--5------------|--3~-----------|----------------------|


----------------------------|----------------------|--------
----------------------------|----------------------|--------
---------------7p5p4--------|----------------------|--------
-5--5\4h7------------7p5----|-------5--------------|--------
----------7h8------------8--|--7------4h7---5------|-----2--
----------------------------|-------------7---8p5--|-\3-----


-------------|--------------------|------------------------|
-------------|--------------------|------------------------|
-------------|--------------------|------------------------|
------6p5----|--------------------|------------------------|
-/5h6--------|---------5-------5--|------------------------|
----------7--|--7----7---8p7h8----|---8------8-------------|




Typed up using WordPad (Cencorship is Unconstitutional support
free speech!)

Metal Edge BBS (619)423-4970  (San Diego, CA  USA)
Over 15,000 Guitar Tabs, Bass tabs, Drum tabs, lessons
MP3s, 0-? Day Warez Running Iniquity v.a26r4, 4.6Gigs, 28.8
RioT Member and Distro...Email me for NUP
===========================================================
h = hammeron                          ps = pick scrape
p = pulloff                           % = repeat phrase
~ = vibrato                           letostak@ix.netcom.com
b = bend                              + natural harmonic
/\ = Slide                            tr = trill
* = Artificial Harmonic               x = ghost note
t = tap note w/right hand             w/bar = with bar
===========================================================
Добавлено: 24.04.2012
Другие материалы по этой песне:
  • Аккорды и текст

Страница создана 24.04.2012
http://primanota.ru/mazas-f/brilliant-studies-chords.htm
Привет, Гость.
Предлагаем пройти революционный курс по гитаре.
Подарок от PrimaNota.Ru, забирай!