PrimaNota.ru - самый крупный в мире бесплатный архив песенных текстов, аккордов, табулатур и нот


Maz Totterdell - Counting My Fingers - таба, видео

Регистрация Запомнить меня
Войти через:  Facebook Google Twitter Vk Yandex Mail.ru

Maz Totterdell - Counting My Fingers - таба, видео

Печатать
Просмотров: 99
     [B]
e|---------7---|----------7---|----------7-----|----------7----|
B|---7-----7---|---7------7---|---7------7-7---|---7------7----|
G|-------8-----|--------8-----|--------8-----8-|--------8------|
D|---9-9-------|---9-9--------|---9-9----------|---9-9---------|
A|-------------|--------------|----------------|---------------|
E|-------------|--------------|----------------|---------------|
                              You built me a maze and said, find your way.

     [F#]                        [E]
e|---------2-----|-------2---|---------0-----|---------0---|
B|---2-----2-2---|-2-----2---|---0-----0-0---|---0-----0---|
G|-------3-----3-|-----3-----|-------1-----1-|-------1-----|
D|---4-4---------|-4-4-------|---2-2---------|---2-2-------|
A|---------------|-----------|---------------|-------------|
E|---------------|-----------|---------------|-------------|
   I found the right words but couldnt say them 
   I found you a star, you wrapped it up tight

     [F#]          [B]
e|---------7-----|-2---------|
B|---7-----7-7---|-2---------|
G|-------8-----8-|-3---------|
D|---9-9---------|-4---------|
A|---------------|-4---------|
E|---------------|-2---------|
     You cradled it and watched it glow, all night

---Repeat with these lyrics---

We traced the path together we traced it all the way 
You said you had to leave but I wanted you to stay 
Around, around 
Hoping every sound would be your voice 

---The last chord is not strumed though---

[E]
But it, never was 

[B] ///////////////// [F#] //
Ohhh love, won't you hold on
[E] //////////////////////////////////////////// [B] ////////////// [F#] /
I'm counting my fingers, counting the words you spent telling me to go
[B] //////////////////// [F#] //
And ohhh love, won't you stay here 
[E] ////////////////////////////////////// [B] ////// [F#]
I'm wasting away, losing it underneath the mask of my tears 

[B] // ^^^^

[B] //////////////////////////////////////////
And every time I see your face I lose my place
[F#] ///////////////////////////////// 
Oh there's so much left I haven't said 
[E] /////////////////////////////////////////////////////////////////////
But I know, that in your love you got to do the things that hurt the most
[B] //////////// [F#] xxxxxx
And it kills me 

[B] /////////////////////////////////////////
I know I cried I never lied why can't you see 
[F#] //////////////////////////////////////////////
Oh I know it's hurting but the truth it cut so deep
[E] ///////////////////////////////////////////// 
Oh I never wanted, to let these words be mindless 

[B] //////////// [F#] xxxxxx

[E]
But shine, shine, shine 


[B] ///////////////// [F#] //
Ohhh love, won't you hold on
[E] //////////////////////////////////////////// [B] ////////////// [F#] /
I'm counting my fingers, counting the words you spent telling me to go
[B] //////////////////// [F#] //
And ohhh love, won't you stay here 
[E] ////////////////////////////////////// [B] ////// [F#]
I'm wasting away, losing it underneath the mask of my tears 

[B] ////////////

[Ab] //////////// [E] //////////
I'm still here oh I'm still here 
[B] //////////////////// [F#] /////
Oh I'm still here oh I'm still here
[E] 
I'm still here 


[B] ///////////////// [F#] //
Ohhh love, won't you hold on
[E] //////////////////////////////////////////// [B] ////////////// [F#] /
I'm counting my fingers, counting the words you spent telling me to go
[B] //////////////////// [F#] //
And ohhh love, won't you stay here 
[E] ////////////////////////////////////// [B] ////// [F#]
I'm wasting away, losing it underneath the mask of my tears 

[B] / [F#] / [E]
[B] / [F#] / [E]

      [B]       [F#]
..Cos I'm still here


Hopefully that's mostly right, I did it off the video so it should be.


/ strum
^ Up stroke
x strum it in a dead way...
Добавлено: 10.08.2013
Другие материалы по этой песне:
  • Аккорды и текст

Страница создана 10.08.2013
http://primanota.ru/maz-totterdell/counting-my-fingers-chords.htm
Привет, Гость.
Предлагаем пройти революционный курс по гитаре.
Подарок от PrimaNota.Ru, забирай!