PrimaNota.ru - самый крупный в мире бесплатный архив песенных текстов, аккордов, табулатур и нот


Maynard Ferguson - Birdland - таба, видео

Регистрация Запомнить меня
Войти через:  Facebook Google Twitter Vk Yandex Mail.ru

Maynard Ferguson - Birdland - таба, видео

Печатать
Просмотров: 139
Bass Intro Riff
e----------------------------------|
B----------------------------------|
G----------------------------------|   x3
D------------------------------5---|
A--2----3-5-----------2----3-5-----|
E----------------------------------|

Opening Guitar Riff
e--------------------------------------------------------------|
B--10b11--10--8-----8-----8-----8--10--10b11--10--8--------8---|
G----------------9-----9-----9-----------------------9--7------|  x2
D--------------------------------------------------------------|
A--------------------------------------------------------------|
E--------------------------------------------------------------|

e--17b18--17--15------15------15------15--17--17b18--17--15---------15----|
B-----------------17------17------17-------------------------17--15-------|
G-------------------------------------------------------------------------|  x2
D-------------------------------------------------------------------------|
A-------------------------------------------------------------------------|
E-------------------------------------------------------------------------|

 Horn Riff
E|--------------------------------------------------------|
B|---11-10-10--10-8-8--10--------10-8-8---10-8-8--11-10~--|
G|------------------------10-10---------------------------|
D|--------------------------------------------------------|
A|--------------------------------------------------------|
E|--------------------------------------------------------|

E|----------------------------|
B|---10-11-12----11-10~-------|
G|-12---------12--------------|
D|----------------------------|
A|----------------------/10---|
E|----------------------------|
Background Riff
E|-------------------------------------|
B|-------------------------------------|
G|---------10-------------------10-----| x3
D|--10h12--------10--10--10--10h12-----|
A|-------------------------------------|
E|-------------------------------------|


Saxophone Solo
E|------------------------------------------------/13-----|
B|--/12-12------13-15-15------/12-12-----13----15---------|
G|-----------12-----------------------12----12------------|
D|--------------------------------------------------------|
A|--------------------------------------------------------|
E|--------------------------------------------------------|

Main Riff
E|-------------------------------------------------------------|
B|---12--15----------12-------15----13p12-----------12--15-----|
G|----------12---14-----12----------------14-12------------12--|
D|-------------------------------------------------------------|
A|-------------------------------------------------------------|
E|-------------------------------------------------------------|

E|-------------------------------------------------15---------12------|
B|---------12------15----15h17-12-----------12--15----------12--------|
G|-----14-----12------------------12--------------------14------------|
D|--------------------------------------------------------------------|
A|--------------------------------------------------------------------|
E|--------------------------------------------------------------------|

E|-------------------------------------15----------12------------|
B|---15------13p12-------------12--15-----------12---------------|
G|-----------------14-12--------------------14-------------------|
D|---------------------------------------------------------------|
A|---------------------------------------------------------------|
E|---------------------------------------------------------------|

E|----------------------|
B|----15---15h17-12-----|
G|------------------12--|
D|----------------------|
A|----------------------|
E|----------------------|

E|--------------15---------12----|
B|-------12--15----------12------|
G|-------------------14----------|
D|-------------------------------|
A|-------------------------------|
E|-------------------------------|

E|-------------------------------------15----------12-----|
B|---15------13p12-------------12--15-----------12--------|
G|-----------------14-12--------------------14------------|
D|--------------------------------------------------------|
A|--------------------------------------------------------|
E|--------------------------------------------------------|

E|--------------------------|
B|----15---13p12------------|
G|----------------14--12----|
D|--------------------------|
A|--------------------------|
E|--------------------------|
Decending Riff
E|-----------------------|
B|--10-9-8-7-6-5-4-------|
G|------------------5----| x 7
D|-----------------------|
A|-----------------------|
E|-----------------------|
Добавлено: 12.07.2015
Другие материалы по этой песне:
  • Аккорды и текст

Страница создана 12.07.2015
http://primanota.ru/maynard-ferguson/birdland-chords.htm
Привет, Гость.
Предлагаем пройти революционный курс по гитаре.
Подарок от PrimaNota.Ru, забирай!