PrimaNota.ru - самый крупный в мире бесплатный архив песенных текстов, аккордов, табулатур и нот


Maylene And The Sons Of Disaster - Step Up - таба, видео

Регистрация Запомнить меня
Войти через:  Facebook Google Twitter Vk Yandex Mail.ru

Maylene And The Sons Of Disaster - Step Up - таба, видео

Печатать
Просмотров: 268
Tuning:Dadgbe
this is the slide intro they play basically the whole time
e|-------------------------------------------------------------------------|
B|-------------------------------------------------------------------------|
G|--0-0--/-3-/-5-0--3--5--0-/-12-------------------------------------------|
D|--0-0-/--3-/-5-0--3--5--0-/-12-------------------------------------------|
A|-------------------------------------------------------------------------|
E|-------------------------------------------------------------------------|

verse no slide this is also the bridge
e|----------------------------------------------------------------------|
B|-------------------------------------6--------------------------------|
G|---------3-----5-3------------3----5b6r-------------------------------|
D|---00-35---53------5-3--00-35---5-3-----------------------------------|
A|----------------------------------------------------------------------|
E|----------------------------------------------------------------------|
chorus
e|-------------------------------------------------------------------------|
B|-------------------------------------------------------------------------|
G|-------------------------------------------------------------------------|
D|-5--5--8-5-10------------------------------------------------------------|
A|-5--5--8-5-10------------------------------------------------------------|
E|-5--5--8-5-10------------------------------------------------------------|
solo
e|-------------------------------------------------------------------------|
B|-------------------------------------------------------------------------|
G|-------------------------------------------------------------------------|
D|-55-00-5-----------------------------------------------------------------|
A|-55-00-5-----------------------------------------------------------------|
E|-55-00-5-----------------------------------------------------------------|
Добавлено: 12.06.2012
Другие материалы по этой песне:

Страница создана 15.04.2012
http://primanota.ru/maylene-and-the-sons-of-disaster/step-up-chords.htm
Привет, Гость.
Предлагаем пройти революционный курс по гитаре.
Подарок от PrimaNota.Ru, забирай!