PrimaNota.ru - самый крупный в мире бесплатный архив песенных текстов, аккордов, табулатур и нот


Maylene And The Sons Of Disaster - Darkest Of Kin - таба, бас-таба, видео

Регистрация Запомнить меня
Войти через:  Facebook Google Twitter Vk Yandex Mail.ru

Maylene And The Sons Of Disaster - Darkest Of Kin - таба, бас-таба, видео

Печатать
Просмотров: 159
Tuning: Drop D

p = Pull of
b = bend
s = Slide
  
Solo:
e------------------------------------------------------------------------|
B—10h13b-10-10h13p10—s8h10p8----------------------13------10-------------|
G—--------------------------10-12h1410h12p10---12b—12r-10-10-------------|
D----------------------------------—--------12---------------12p10—10h12-|
A--------------------------------—-----------------------------—--12-----|
D------------------------------------------------------------------------|


e------------------------10----------------------------------------------|
B-10-12-10----13-------10------------------------------10h12p10-10-------|
G-10-12-10—12b—-10--12b-----12p10—10h12--12h14s10--10--10h12p10-10-------|
D----------------------------------—-------------------------------------|
A--------------------------------—-----------------------------—---------|
D------------------------------------------------------------------------|

e-------------------------------------10---------------------------------|
B-10-10---------------------------6---13b--------------------------------|
G-10-10---------------------5h7p6----------------------------------------|
D------12-------------33---7--------—------------------------------------|
A---------3h5p3-5-3h5---5--------—-----------------------------—---------|
D---------------5--------------------------------------------------------|

I think this is pretty close, please add to it if you find mistakes.
Добавлено: 23.06.2012
Другие материалы по этой песне:
  • Аккорды и текст

Страница создана 18.04.2012
http://primanota.ru/maylene-and-the-sons-of-disaster/darkest-of-kin-chords.htm
Привет, Гость.
Предлагаем пройти революционный курс по гитаре.
Подарок от PrimaNota.Ru, забирай!