PrimaNota.ru - самый крупный в мире бесплатный архив песенных текстов, аккордов, табулатур и нот


Maylene And The Sons Of Disaster - Come For You - таба, видео

Регистрация Запомнить меня
Войти через:  Facebook Google Twitter Vk Yandex Mail.ru

Maylene And The Sons Of Disaster - Come For You - таба, видео

Печатать
Просмотров: 234
Drop D Tuning.

Guitar 1
[0:00]-[0:47]
|-------------------------------------------------------------------|
|-------------------------------------------------------------------|
|-------------2-------------------------------2---------------------|
|------3-------3-------3-----3---------3-------3-------3-------5----|
|----0---0--3---3----3---3-----3-----0---0--3---3----3---3---5------|
|--0---------------3---------------0---------------3-------5-----5--|
|
|-------------------------------------------------------------------|
|-------------------------------------------------------------------|
|-------------2---------------------------------2-------------------|
|------3-------3-------3--------8--------3-------3-------3----3-----|
|----0---0--3---3----3---3----8---8----0---0--3---3----3---3----3---|
|--0---------------3-------/8--------0---------------3--------------|
|
|-------------------------------------------------------------------|
|-------------------------------------------------------------------|
|-------------2-------------------------------2---------------------|
|------3-------3-------3-----3---------3-------3-------3-------5----|
|----0---0--3---3----3---3-----3-----0---0--3---3----3---3---5------|
|--0---------------3---------------0---------------3-------5-----5--|
|
|-----------------------------------------------------------------------|
|-----------------------------------------------------------------------|
|-------------2---------------------------------2-----------------------|
|------3-------3-------3--------8--------3--------3--3-3-3-3-3-3-3-3-3--|
|----0---0--3---3----3---3----8---8----0---0--3------3-3-3-3-3-3-3-3-3--|
|--0---------------3-------/8--------0---------------3-3-3-3-3-3-3-3-3--|

Guitar 1
Chorus
[0:47]-[1:10]             [1:10]-[1:16]
|-------------------------|-----------|
|-------------------------|-----------|
|-------------------------|-----------|
|--0-----8-----3-----5----|--8----8~--|
|--0-----8-----3-----5----|--8----8~--|
|--0x8---8x8---3x8---5x8--|--8x8--8~--|
|
|x2

Guitar 2
Chorus
[0:47]-[1:10]
|--12----12----12----12----13----13----13----13-----|
|-----13----13----13----13----13----13----13----13--|
|---------------------------------------------------|
|---------------------------------------------------|
|---------------------------------------------------|
|---------------------------------------------------|
|
|---------------------------------------------------|
|--13----13----13----13----13----13----13----13-----|
|-----10----10----10----10----12----12----12----12--|
|---------------------------------------------------|
|---------------------------------------------------|
|---------------------------------------------------|
|
|x2

Guitar 1
[1:16]-[1:43]
|-------------------------------------------------------------------|
|-------------------------------------------------------------------|
|-------------2-------------------------------2---------------------|
|------3-------3-------3-----3---------3-------3-------3-------5----|
|----0---0--3---3----3---3-----3-----0---0--3---3----3---3---5------|
|--0---------------3---------------0---------------3-------5-----5--|
|
|-------------------------------------------------------------------|
|-------------------------------------------------------------------|
|-------------2---------------------------------2-------------------|
|------3-------3-------3--------8--------3-------3-------3----3-----|
|----0---0--3---3----3---3----8---8----0---0--3---3----3---3----3---|
|--0---------------3-------/8--------0---------------3--------------|
|
|-------------------------------------------------------------------|
|-------------------------------------------------------------------|
|-------------2-------------------------------2---------------------|
|------3-------3-------3-----3---------3-------3-------3-------5----|
|----0---0--3---3----3---3-----3-----0---0--3---3----3---3---5------|
|--0---------------3---------------0---------------3-------5-----5--|
|
|---------------------------------------------------------------------------------------|
|---------------------------------------------------------------------------------------|
|-------------2---------------------------------2---------------------------------------|
|------3-------3-------3--------8--------3--------3--3-3-3-3-3-3-3-3-3-5-5-5-5-5-5-5-5--|
|----0---0--3---3----3---3----8---8----0---0--3------3-3-3-3-3-3-3-3-3-5-5-5-5-5-5-5-5--|
|--0---------------3-------/8--------0---------------3-3-3-3-3-3-3-3-3-5-5-5-5-5-5-5-5--|



Guitar 1
Chorus
[1:43]-[2:06]
|-------------------------|
|-------------------------|
|-------------------------|
|--0-----8-----3-----5----|
|--0-----8-----3-----5----|
|--0x8---8x8---3x8---5x8--|
|
|x2

Guitar 2
Chorus
[1:43]-[2:06]
|--12----12----12----12----13----13----13----13-----|
|-----13----13----13----13----13----13----13----13--|
|---------------------------------------------------|
|---------------------------------------------------|
|---------------------------------------------------|
|---------------------------------------------------|
|
|---------------------------------------------------|
|--13----13----13----13----13----13----13----13-----|
|-----10----10----10----10----12----12----12----12--|
|---------------------------------------------------|
|---------------------------------------------------|
|---------------------------------------------------|
|
|x2


Guitar 1
[2:06]-[2:29]
|----------------------------------|
|----------------------------------|
|----------------------------------|
|--0-0------8-8------3-3------5-5--|
|--0-0------8-8------3-3------5-5--|
|--0-0------8-8------3-3------5-5--|
|
|----------------------------------------------------|
|----------------------------------------------------|
|----------------------------------------------------|
|--0-0------8-8------3-3-3-3-3-3-3-3-3-3-3-3-3-3-----|
|--0-0------8-8------3-3-3-3-3-3-3-3-3-3-3-3-3-3-----|
|--0-0------8-8------3-3-3-3-3-3-3-3-3-3-3-3-3-3-2b--|

Guitar 2
[2:06]-[2:24]
|-------------------------------|
|-------------------------------|
|-------------------------------|
|--5/7----5/7\5\3---5/7--7p5h7--|
|-------------------------------|
|-------------------------------|
|
|x3


Guitar 1
[2:29]-[2:53]
|----------------------------|
|----------------------------|
|--2-----0-----10-----9------|
|--3-----3-----10-----10-----|
|--0x8---0x8---8-x8---8--x8--|
|----------------------------|
|
|--------------8-------------|
|--------------10x16---------|
|--2-----0-------------------|
|--3-----3-------------------|
|--0x8---0x8-----------------|
|----------------------------|


Guitar 2
[2:31]-[2:53]
|---------------------------------------------------|
|---------------------------------------------------|
|--7-7-9-9b----7/9-9/14----14p12-12-12-\10-9-10/12--|
|---------------------------------------------------|
|---------------------------------------------------|
|---------------------------------------------------|
|
|-------------------------------------------------------|
|------------------------------------------------13-13--|
|--7/14-14--12--15--15h14-10/12/14---14p12-10/12--------|
|-------------------------------------------------------|
|-------------------------------------------------------|
|-------------------------------------------------------|

Guitar 1
[2:53]-[3:28]
|--8--8--8--8-------------8--8--8--8--8--8--8--8---|
|--10-10-10-10-8/10-8-6-8-10-10-10-10-10-10-10-10--|
|--------------------------------------------------|
|--------------------------------------------------|
|--------------------------------------------------|
|--------------------------------------------------|
|
|--8--8--8--8-----------8-8-8-8-8-8-8-8-8--|
|--10-10-10-10-8/10-8-6-6-6-5-5-5-5-5-5-5--|
|------------------------------------------|
|------------------------------------------|
|------------------------------------------|
|------------------------------------------|
|
|x3

Guitar 2
[2:53]-[3:51]
|-------------------------|
|-------------------------|
|-------------------------|
|--0-----8-----3-----5----|
|--0-----8-----3-----5----|
|--0x8---8x8---3x8---5x8--|
|
|x5

Guitar 1
[3:28]-[3:51]
|--12-12-13-13-12-12------------------------------------|
|--------------------13-13-11-11--11-11-11-11-11/13-11--|
|-------------------------------------------------------|
|-------------------------------------------------------|
|-------------------------------------------------------|
|-------------------------------------------------------|
|
|--------13-13-13-13-13-13-13------12-12-12-12-12-12-12-|
|--10-10----------------------10-8----------------------|
|-------------------------------------------------------|
|-------------------------------------------------------|
|-------------------------------------------------------|
|-------------------------------------------------------|
|
|x2

Guitar 1
[3:51]-[3:59]
|----13~~--|
|----------|
|----------|
|----------|
|----------|
|----------|

Guitar 2
[3:51]-[3:59]
|---------|
|---------|
|---------|
|----8~---|
|----8~---|
|----8~---|
Добавлено: 02.08.2013
Другие материалы по этой песне:
  • Аккорды и текст

Страница создана 02.08.2013
http://primanota.ru/maylene-and-the-sons-of-disaster/come-for-you-chords.htm
Привет, Гость.
Предлагаем пройти революционный курс по гитаре.
Подарок от PrimaNota.Ru, забирай!