PrimaNota.ru - самый крупный в мире бесплатный архив песенных текстов, аккордов, табулатур и нот


Mayhem - Fall Of Seraphs - текст песни, таба, видео

Регистрация Запомнить меня
Войти через:  Facebook Google Twitter Vk Yandex Mail.ru

Mayhem - Fall Of Seraphs - текст песни, таба, видео

Печатать
Просмотров: 301
Уроки эстрадного вокала в Санкт-Петербурге
Mayhem - Fall of Seraphs, from the album Wolf's Lair Abyss
by HS Abbadon

Intro:
|--------------------------|--------------------------|------------------|--|
|--------------------------|--------------------------|------------------|--|
|--------------------------|--------------------------|------------------|--|
|-222-99-222-3-333|-222-99-222---------|-222-99-222-|-2-22------------------|
|-222-77-222-1-111|-222-77-222-3-333|-222-77-222-|-2-22-7-77-7-77-6---------|
|-xxx-----xxx---------|-xxx------xxx-1-111|-xxx-----xxx-|-x-xx-5-55-5-55-4--|
Play 3 times


This is the actualy the bass tab only with chords, I couldn't figure out the lead guitar part.
|------------------------|------------------------------------------------|
|------------------------|------------------------------------------------|
|-3------6-------------|---------7---6-------------7---3---6---5----------|
|-3------6-------------|-2------7---6------2------7---3---6---52----------|
|-1------4-------------|-2------5---4------2------5---1---4---32----------|
|------------------------|-x------------------x----------------------x----|
                         ____________________________-> Play 2 times

|-------------------------------------|-------------------|
|-------------------------------------|-------------------|
|--------------766-------x---------|-7---6---3------------|
|-2------2---766---2-----2-----2|-7---6---3---2-----------|      Play 2 times
|-2------2---544---2-------2---2|-5---4---1---2-----------|
|-x------x-----------x------------x|---------------x------|


Verse:
|---------------------------------------------------|
|---------------------------------------------------|
|----------3-----------------7--------6-6-666-------|   Play 3 times (I think..)
|-2-------3-(20)-2--------7-(12)-6-6-666------------|
|-2-(20)-1-------2-(20)-5--------4-4-444------------|
|-x----------------x--------------------------------|
 "Serpent christ only smile..."


Bridge:
|-------------------------------------------|
|-------------------------------------------|
|---------------------------------333-------|     Play 4 times (I'm sure!)
|-7---7-67-36---7---7-67-3333---------------|
|-7---7-67-36---7---7-67-3111---------------|
|-5---5-45-14---5---5-45-1------------------|

This riff is between the slow bridge and he fast bridge.
|--------------------|
|--------------------|
|-----------9--------|
|-7--------9-(8)-----|
|-7-(14)-8-----------|
|-5------------------|


Play the normal bridge here, only fast.
 "Serpent of Eve!"

Play this 6 times and finish with:

|-7~~~~|
|-7~~~~|
|-5~~~~|
Добавлено: 21.03.2012
Другие материалы по этой песне:
  • Аккорды и текст

Страница создана 21.03.2012
http://primanota.ru/mayhem/fall-of-seraphs-chords.htm
Привет, Гость.
Предлагаем пройти революционный курс по гитаре.
Подарок от PrimaNota.Ru, забирай!