PrimaNota.ru - самый крупный в мире бесплатный архив песенных текстов, аккордов, табулатур и нот


Mayday Parade - Last Thing That Meant Anything - аккорды и текст, таба, видео

Регистрация Запомнить меня
Войти через:  Facebook Google Twitter Vk Yandex Mail.ru

Mayday Parade - Last Thing That Meant Anything - аккорды и текст, таба, видео

Печатать
Просмотров: 117
Last Thing That Meant Anything
Mayday Parade
Mayday Parade
Last Thing That Meant Anything
Tales Told By Dead Friends
2006 Fearless Records
Submitted by: paramore_fans@yahoo.com

Key: G

Tuning: Standard EADGBe

Chords used;
G -    320033
D -    xx0232
Em -   022000
C -    x32010
Bm -   x24432
B/D# - x698xx
D/F# - 2x023x


Intro:
      G         C         G        D/F#
e|---------|---------|---------|---------|
B|---------|---------|---------|---------|
G|-7---7---|-5---5---|-4---4---|-7-5-4---|
D|---5---5-|---5---5-|---5---5-|-------5-|
A|---------|---------|---------|---------|
E|---------|---------|---------|---------|

         Em              D
e|-----------------|-----------------|
B|-----------------|-------0---------|
G|-----0-------0---|-----0---0---0---|
D|---0---0---0---0-|---0-------4---0-|
A|-7-------7-------|-5---------------|
E|-----------------|-----------------|


Verse 1: Do intro riff
       G
Well I thought that we could
C              G             D/F#
sit around and talk for hours
      Em
About things I couldn't say to you
    D
And things that we could never do and
G            C          G      D/F#
  This conversation has had no face
         Em
When the words take days you
      D
can rewrite and erase anything


Refrain 1:
C             D
  You know my heart
(so tell me honestly
did you ever want this)
Em              hold
  Knows all this


Guitar 2: while dong Refrain 1
         C                 D
e|--------7---------|---------7---------|
B|--8---8---10-10-8-|---8---8---10-10-8-|
G|7---7-------------|-7---7-------------|
D|------------------|-------------------|
A|------------------|-------------------|
E|------------------|-------------------|

         Em                Em
e|--------7---------|---------7-10-10-|
B|--8---8---10-10-8-|-7-8---8---------|
G|7---7-------------|-----7-----------|
D|------------------|-----------------|
A|------------------|-----------------|
E|------------------|-----------------|


Verse 2: Do intro riff
         G
And I'll borrow words from
C               G         D/F#
all my favorite paragraphs
           Em
To write a ballad
while we say the things
   D
We hope would mean
the most to me And
G              C
  Each line is sent I have
G           D/F#
found a new pages of
Em
hope for the days
       D
When I fell like I've
lost everything


Refrain 2:
C             D
  You know my heart
(so tell me honestly
did you ever
really want this)
Em
  Knows all these
G
lines (cause my
jealous heart can't
take that)
C
  So I'll sing this
D        B/D#
song for every
Em(hold)    D(hold)
word that's come
    C(hold)
out wrong


Chorus 1:
   Bm    C   D
But I'll be ok
(Is that what you
B/D#
want me to say)
Eb
  It's called breakup
D
  Cause it's broken
(Repeat x10)


2nd voice: while singing Chorus 1
         Bm
And well try so bad
   C
to tell me that you
G
Make it that you're
D/F#
sorry and the
Em
Lines we said
Never meant the
D
words we meant
Bm
Every kiss that
          C
you could ever mean
    G
The everything that
D/F#
takes you back
    Em
The chocolate
rose the kisses
D
Chase it will you miss it?


Interlude: While doing intro
e|-------3-----------5-3--3h5-7--5-|
B|-0h1-3---3---0h1-3---------------|
G|---------------------------------|
D|---------------------------------| x2
A|---------------------------------|
E|---------------------------------|


Outro:
       G
Well I thought that we could
C              G             D/F#
sit around and talk for hours
      Em
About things I couldn't say to you
    D
And things that we could never do
Добавлено: 29.07.2012
Другие материалы по этой песне:
  • Аккорды и текст

Страница создана 29.07.2012
http://primanota.ru/mayday-parade/last-thing-that-meant-anything-chords.htm
Привет, Гость.
Предлагаем пройти революционный курс по гитаре.
Подарок от PrimaNota.Ru, забирай!