PrimaNota.ru - самый крупный в мире бесплатный архив песенных текстов, аккордов, табулатур и нот


Mayday Parade - In My Head - текст песни, таба, видео

Регистрация Запомнить меня
Войти через:  Facebook Google Twitter Vk Yandex Mail.ru

Mayday Parade - In My Head - текст песни, таба, видео

Печатать
Просмотров: 180
Авторы: Claude Kelly, Jason Derulo, Jonathan "J.R." Rotem

In My Head Tabs
**NOTE, just play whole song in drop D**
Tabbed by RC.

Guitar cover here: http://www.youtube.com/watch?v=kY5Nk-8dIi0
watch and play accordingly :)

~RHYTHM~
DROP D NEEDED!!

E|--------------|--|
B|--------------|--|
G|--5--------3--|--| Chords for the rest of the song... chorus/interlude...
D|--5--6--1--3--|--|
A|--3--6--1--1--|--|
D|-----6--1-----|--|


~LEAD~
Drop D or Standard... tab in standard

E|----------------------------------------------------------|--|
B|----------------------------------------------------------|--|
G|--------------------------------------------------8--7--8\|--|
D|--------8--------10--------8--------10-----8--10----------|--|
A|--6--6-----6--6------6--6-----6--6------6-----------------|--|
E|----------------------------------------------------------|--|


E|--------------------------|--|
B|--------------------------|--|
G|--20--19--20--19--20--19--|--|
D|--------------------------|--|
A|--18--17--18--17--18--17--|--|
E|--------------------------|--|

~PRE-SOLO~
Drop D needed for piano part

(PIANO PART)
E|--------------------------------------------------|--|
B|--------------------------------------------------|--|
G|--------5-----------------------------------------|--|
D|-----5-----5--------6-----------1--------1--0--1--|--|
A|--3--------------6-----6-----1-----1--------------|--|
D|--------------6-----------1-----------1-----------|--|

~SOLO~
Standard tuning or drop D, tab in standard

E|--------------------------|--|
B|--------------------------|--|
G|----------12----13p12\10--|--|
D|--13--15------------------|--|
A|--------------------------|--|
E|--------------------------|--|

E|--------------15--------|--|
B|------------------------|--|
G|------------------------|--|
D|--13--15--13--------12~~|--|
A|------------------------|--|
E|------------------------|--|

E|------------------------------------------------------------|--|
B|----------------------16--18--------------------------------|--|
G|--------------13--15------------19b20r19--15--15~~~---------|--|
D|--13--15--17------------------------------------------------|--|
A|----------------------------------------------------18--17~~|--|
E|------------------------------------------------------------|--|

E|----------------------------------------------------------------------|--|
B|----------------------------------------------------------------------|--|
G|----------------------------------------------------------------------|--|
D|----------------------------------------------12--13--15--------------|--|
A|----------------------------------11--13--15--------------11--13--15--|--|
E|--11--13--15--13--11--11--13--15--------------------------------------|--|

E|------------------------------------------------------------------------------|--|
B|--------------------------------------------------13--15--16------------------|--|
G|--------------12--13--15--------------12--13--15--------------12--13--15b--15b|--|
D|--12--13--15--------------12--13--15------------------------------------------|--|
A|------------------------------------------------------------------------------|--|
E|------------------------------------------------------------------------------|--|

E|-------------------------------------------------|--|
B|-------------------------------------------------|--|
G|-------------------------------------------------|--|
D|--17--17p15p13--15*/--13h15p13----------12h13p12\|--|
A|--------------------------------15--13-----------|--|
E|-------------------------------------------------|--|


E|-------------------------------------------------------|--|
B|---------------------16----16--13------13--------------|--|
G|--15--17--15-----------------------15------15--12------|--|
D|--------------15h17--------------------------------15--|--|
A|-------------------------------------------------------|--|
E|-------------------------------------------------------|--|

E|--15p13p11--15p13p11--16p15p13p11--18p15p13p11--20p15p13p11-----|-------|
B|----------------------------------------------------------------|-------|
G|----------------------------------------------------------------|-- <---| Tapped.
D|-------------------------------------------------------------/13|-------|
A|--------------------------------------------------------------13|-------|
E|----------------------------------------------------------------|-------|
Добавлено: 14.09.2013
Другие материалы по этой песне:
  • Аккорды и текст

Страница создана 14.09.2013
http://primanota.ru/mayday-parade/in-my-head-chords.htm
Привет, Гость.
Предлагаем пройти революционный курс по гитаре.
Подарок от PrimaNota.Ru, забирай!