PrimaNota.ru - самый крупный в мире бесплатный архив песенных текстов, аккордов, табулатур и нот


Mayday Parade - Hollow - бас-таба, видео

Регистрация Запомнить меня
Войти через:  Facebook Google Twitter Vk Yandex Mail.ru

Mayday Parade - Hollow - бас-таба, видео

Печатать
Просмотров: 53
Song:   Hollow
Artist: Mayday Parade
Album:  Black Lines
Tuning: Drop D (D A D G)

Intro: (Come in after guitar plays riff once)
  1   2   3   4    1   2   3   4    1   2   3   4    1   2   3   4    
G|----------------|----------------|----------------|----------------|
D|----------------|----------------|----------------|----------------|
A|2-4-4-4-4-----44|4-3-3-3-3-2-2-2-|2-0-0-0-0-0---00|0---------------|
D|----------------|----------------|----------------|--4-4-4-4-2-2-2-|

  1   2   3   4    1   2   3   4    1   2   3   4    1   2   3   4    
G|----------------|----------------|----------------|----------------|
D|----------------|----------------|----------------|----------------|
A|2-4-4-4-4-----44|4-3-3-3-3-2-2-2-|2-0-0-0-0-0---00|0---------------|
D|----------------|----------------|----------------|--4-4-4-4-2-2-2-|

Verse 1: "She's a cold-blooded killer..."
  1   2   3   4    1   2   3   4    1   2   3   4    1   2   3   4    
G|----------------|----------------|----------------|----------------|
D|----------------|----------------|----------------|----------------|
A|2-4-4-4-4-----44|4-3-3-3-3-2-2-2-|2-0-0-0-0-0---00|0---------------|
D|----------------|----------------|----------------|--4-4-4-4-2-2-2-|

  1   2   3   4    1   2   3   4    1   2   3   4    1   2   3   4    
G|----------------|----------------|----------------|----------------|
D|----------------|----------------|----------------|----------------|
A|2-4-4-4-4-----44|4-3-3-3-3-2-2-2-|2-0-0-0-0-0---00|0---------------|
D|----------------|----------------|----------------|--4-4-4-4-2-2-2-|

  1   2   3   4    1   2   3   4    1   2   3   4    1   2   3   4    
G|----------------|----------------|----------------|----------------|
D|----------------|----------------|----------------|----------------|
A|2-4-4-4-4-----44|4-3-3-3-3-2-2-2-|2-0-0-0-0-0---00|0---------------|
D|----------------|----------------|----------------|--4-4-4-4-2-2-2-|

  1   2   3   4    1   2   3   4    1   2   3   4    1   2   3   4    
G|----------------|----------------|----------------|----------------|
D|----------------|----------------|----------------|----------------|
A|2-4-4-4-4-----44|4-3-3-3-3-2-2-2-|2-0-0-0-0-0---00|0---------------|
D|----------------|----------------|----------------|--4-4-4-4-2-2-2-|

Interlude:
  1   2   3   4    1   2   3   4    1   2   3   4    1   2   3   4    
G|----------------|----------------|----------------|----------------|
D|----------------|----------------|----------------|----------------|
A|4-------4-----4-|4-3-3---3-2-2---|--0-0---0-----0-|0---------------|
D|----------------|----------------|----------------|--4-4-4-4-2-----|

  1   2   3   4    1   2   3   4    1   2   3   4    1   2   3   4    
G|----------------|----------------|----------------|----------------|
D|----------------|----------------|----------------|----------------|
A|4-------4-----4-|4-3-3---3-2-2---|--0-0---0-----0-|----------------|
D|----------------|----------------|----------------|2-4-----2-4-----|

Verse 2: "I am a cancer..."
  1   2   3   4    1   2   3   4    1   2   3   4    1   2   3   4    
G|----------------|----------------|----------------|----------------|
D|----------------|----------------|----------------|----------------|
A|2-4-4-4-4-----44|4-3-3-3-3-2-2-2-|2-0-0-0-0-0---00|0---------------|
D|----------------|----------------|----------------|--4-4-4-4-2-2-2-|

  1   2   3   4    1   2   3   4    1   2   3   4    1   2   3   4    
G|----------------|----------------|----------------|----------------|
D|----------------|----------------|----------------|----------------|
A|2-4-4-4-4-----44|4-3-3-3-3-2-2-2-|2-0-0-0-0-0---00|0---------------|
D|----------------|----------------|----------------|--4-4-4-4-2-2-2-|

  1   2   3   4    1   2   3   4    1   2   3   4    1   2   3   4    
G|----------------|----------------|----------------|----------------|
D|----------------|----------------|----------------|----------------|
A|2-4-4-4-4-----44|4-3-3-3-3-2-2-2-|2-0-0-0-0-0---00|0---------------|
D|----------------|----------------|----------------|--4-4-4-4-2-2-2-|

  1   2   3   4    1   2   3   4    1   2   3   4    1   2   3   4    
G|----------------|----------------|----------------|----------------|
D|----------------|----------------|----------------|----------------|
A|2-4-4-4-4-----44|4-3-3-3-3-2-2-2-|2-0-0-0-0-0---00|0---------------|
D|----------------|----------------|----------------|--4-4-4-4-2-2-2-|

Chorus 1: "She's a cold-blooded killer..."
  1   2   3   4    1   2   3   4    1   2   3   4    1   2   3   4    
G|----------------|----------------|----------------|----------------|
D|----------------|----------------|----------------|----------------|
A|4-------4-----4-|4-3-3---3-2-2---|--0-0---0-----0-|0---------------|
D|----------------|----------------|----------------|--4-4-4-4-2---2-|

  1   2   3   4    1   2   3   4    1   2   3   4    1   2   3   4    
G|----------------|----------------|----------------|----------------|
D|----------------|----------------|----------------|----------------|
A|4-------4-----4-|4-3-3---3-2-2---|--0-0---0-----0-|----------------|
D|----------------|----------------|----------------|2-4---4-2-4-----|

  1   2   3   4    1   2   3   4    1   2   3   4    1   2   3   4    
G|----------------|----------------|----------------|----------------|
D|----------------|----------------|----------------|----------------|
A|4-------4-----4-|4-3-3---3-2-2---|--0-0---0-----0-|0---------------|
D|----------------|----------------|----------------|--4-4-4-4-2---2-|

  1   2   3   4    1   2   3   4    1   2   3   4    1   2   3   4    
G|----------------|----------------|----------------|----------------|
D|----------------|----------------|----------------|----------------|
A|4-------4-----4-|4-3-3---3-2-2---|--0-0---0-----0-|----------------|
D|----------------|----------------|----------------|2-4---4-2-4-----|

Instrumental:
  1   2   3   4    1   2   3   4    1   2   3   4    1   2   3   4    
G|----------------|----------------|----------------|--------1-1-1-1-|
D|----------------|--------2-2-2-2-|----------------|----------------|
A|4-----4-----4---|--4-------------|4-----4-----4---|--4-------------|
D|--2-----2-----2-|----2-----------|--2-----2-----2-|----2-----------|

  1   2   3   4    1   2   3   4    1   2   3   4    1   2   3   4    
G|----------------|----------------|----------------|--------1-1-1-1-|
D|----------------|--------2-2-2-2-|----------------|----------------|
A|4-----4-----4---|--4-------------|4-----4-----4---|--4-------------|
D|--2-----2-----2-|----2-----------|--2-----2-----2-|----2-----------|

Bridge: "Hollow, hollow, hollow..."
  1   2   3   4    1   2   3   4    1   2   3   4    1   2   3   4    
G|----------------|----------------|----------------|----------------|
D|----------------|----------------|----------------|----------------|
A|4-----3-----2---|--0-------------|4-----3-----2---|--0-------------|
D|----------------|--------6---4-2-|----------------|--------6---4-2-|

  1   2   3   4    1   2   3   4    1   2   3   4    1   2   3   4    
G|----------------|----------------|----------------|----------------|
D|----------------|----------------|----------------|----------------|
A|4-----3-----2---|--0-------------|4-----3-----2---|0---------------|
D|----------------|--------6---4-2-|----------------|----------------|

Chorus 2: "She's a cold-blooded killer..."
  1   2   3   4    1   2   3   4    1   2   3   4    1   2   3   4    
G|----------------|----------------|----------------|----------------|
D|----------------|----------------|----------------|----------------|
A|4-------4-----4-|4-3-3---3-2-2---|--0-0---0-----0-|0---------------|
D|----------------|----------------|----------------|--4-4-4-4-2---2-|

  1   2   3   4    1   2   3   4    1   2   3   4    1   2   3   4    
G|----------------|----------------|----------------|----------------|
D|----------------|----------------|----------------|----------------|
A|4-------4-----4-|4-3-3---3-2-2---|--0-0---0-----0-|----------------|
D|----------------|----------------|----------------|2-4---4-2-4-----|

  1   2   3   4    1   2   3   4    1   2   3   4    1   2   3   4    
G|----------------|----------------|----------------|----------------|
D|----------------|----------------|----------------|----------------|
A|4-------4-----4-|4-3-3---3-2-2---|--0-0---0-----0-|0---------------|
D|----------------|----------------|----------------|--4-4-4-4-2---2-|

  1   2   3   4    1   2   3   4    1   2   3   4    1   2   3   4    
G|----------------|----------------|----------------|----------------|
D|----------------|----------------|----------------|----------------|
A|4-------4-----4-|4-3-3---3-2-2---|--0-0---0-----0-|----------------|
D|----------------|----------------|----------------|2-4-----2-4-----|

  1   2   3   4
G|----------------|
D|----------------|
A|----------------|
D|2-4-----2-4-----|

Outro:
  1   2   3   4    1   2   3   4    1   2   3   4    1   2   3   4    
G|----------------|----------------|----------------|----------------|
D|----------------|----------------|----------------|----------------|
A|2-4-4-4-4-----44|4-3-3-3-3-2-2-2-|2-0-0-0-0-0---00|0---------------|
D|----------------|----------------|----------------|--4-4-4-4-2-----|

  1   2   3   4    1   2   3   4    1   2   3   4    1   2   3   4    
G|----------------|----------------|----------------|----------------|
D|----------------|----------------|----------------|----------------|
A|2-4-4-4-4-----44|4-3-3-3-3-2-2-2-|2-0-0-0-0-0---00|0---------------|
D|----------------|----------------|----------------|--4-4-4-4-2-----|

  1   2   3   4    1   2   3   4    1   2   3   4    1   2   3   4    
G|----------------|----------------|----------------|----------------|
D|----------------|----------------|----------------|----------------|
A|2-4-4-4-4-----44|4-3-3-3-3-2-2-2-|2-0-0-0-0-0---00|0---------------|
D|----------------|----------------|----------------|--4-4-4-4-2-----|


**As always, this tab may not be 100% correct, so please comment any corrections I can make. Thanks!**
Добавлено: 01.05.2016
Другие материалы по этой песне:
  • Аккорды и текст

Страница создана 01.05.2016
http://primanota.ru/mayday-parade/hollow-chords.htm
Привет, Гость.
Предлагаем пройти революционный курс по гитаре.
Подарок от PrimaNota.Ru, забирай!