PrimaNota.ru - самый крупный в мире бесплатный архив песенных текстов, аккордов, табулатур и нот


Mayday Parade - Hold Onto Me - аккорды и текст, таба, видео

Регистрация Запомнить меня
Войти через:  Facebook Google Twitter Vk Yandex Mail.ru

Mayday Parade - Hold Onto Me - аккорды и текст, таба, видео

Печатать
Просмотров: 121
Уроки эстрадного вокала в Санкт-Петербурге
Hold Onto Me
Mayday Parade
Intro/Verse
E|-----------------------------0-----------------------------0--|
B|-----------------------------2-----------------------------2--|
G|--------------2-----2--------2--------------2-----2--------2--|
D|-------h-0--2-----2-----------2-------h-0--2-----2---------2--|
A|--2-h-4-----------------0--0--0--2-h-4---------------0--0--0--|
E|--------------------------------------------------------------|

Chorus

E|-----2-----2-----2-----2-----2-----0-----2-----2-----|
B|-----2-----2-----2-----2-----3-----2-----2-----2-----|
G|-----4-----2-----4-----2-----2-----2-----4-----2-----|
D|-----4-----4-----4-----4-----0-----2-----4-----4-----|
A|-----2-----4-----2-----4-----------0-----2-----4-----|
E|-----------2-----------2-----------------------2-----|

Bridge

E|-----2-----0-----0-----     E|-----2-----0-----2-----0-----2-----0-----0---|
B|-----3-----2-----0-----     B|-----3-----2-----2-----0-----3-----2-----0---|
G|-----2-----2-----1----- X2  G|-----2-----2-----2-----1-----2-----2-----1---|
D|-----0-----2-----2-----     D|-----0-----2-----4-----2-----0-----2-----2---|
A|-----------0-----2-----     A|-----------0-----4-----2-----------0-----2---|
E|-----------------0-----     E|-----------------2-----0-----------------0---|
Добавлено: 04.11.2013
Другие материалы по этой песне:
  • Аккорды и текст

Страница создана 02.08.2013
http://primanota.ru/mayday-parade/hold-onto-me-chords.htm
Привет, Гость.
Предлагаем пройти революционный курс по гитаре.
Подарок от PrimaNota.Ru, забирай!