PrimaNota.ru - самый крупный в мире бесплатный архив песенных текстов, аккордов, табулатур и нот


Maxwell Mendis - Udarata Kandukaraye - аккорды и текст, видео

Регистрация Запомнить меня
Войти через:  Facebook Google Twitter Vk Yandex Mail.ru

Maxwell Mendis - Udarata Kandukaraye - аккорды и текст, видео

Печатать
Просмотров: 35
Udarata Kandukaraye
Maxwell Mendis
-------------------------------------------------------------------------------
              Udarata Kandukaraye - Maxwell Mendis (Mendis Foursome)
-------------------------------------------------------------------------------

Tabbed by: laviru93doodle a.k.a Laviru K. (Paris)

Link to the original song: https://www.youtube.com/watch?v=eFDFaWMagG4

Intro:
A A Bb Bb A

            E                       A                       E                     A
e|--5-4h5p4--------------|--4-2h4p2-0------------|--2-0h2p0--------------|--4-5-7-5----5----5--|
B|----------5-3-5-3-5-3--|------------2-3-2-3-2--|----------2-0-2-0-2-0--|---------------------|
G|-----------------------|-----------------------|-----------------------|----------6----6-----|
D|-----------------------|-----------------------|-----------------------|---------------------|
A|-----------------------|-----------------------|-----------------------|---------------------|
E|-----------------------|-----------------------|-----------------------|---------------------|


A
Udarata kandu karaye
D                A
gamanak yana kalayae
                    Bm
Dumriya udarata manike
E      E7    A
Swarna hamuwuye

A
Udarata kandu karaye
D                A
gamanak yana kalayae
                    Bm
Dumriya udarata manike
E      E7    A
Swarna hamuwuye

            E                       A                       E                     A
e|--5-4h5p4--------------|--4-2h4p2-0------------|--2-0h2p0--------------|--4-5-7-5----5----5--|
B|----------5-3-5-3-5-3--|------------2-3-2-3-2--|----------2-0-2-0-2-0--|---------------------|
G|-----------------------|-----------------------|-----------------------|----------6----6-----|
D|-----------------------|-----------------------|-----------------------|---------------------|
A|-----------------------|-----------------------|-----------------------|---------------------|
E|-----------------------|-----------------------|-----------------------|---------------------|

A                 D
Naa dalu thol atharin... nn.....
             A
Sinahawa naguwa..
                 Bm
Ayage muhune siriyawen
E     E7     A
Meman math wuwa

A
Udarata kandu karaye
D                A
gamanak yana kalayae
                    Bm
Dumriya udarata manike
E      E7    A
Swarna hamuwuye

            E                       A                       E                     A
e|--5-4h5p4--------------|--4-2h4p2-0------------|--2-0h2p0--------------|--4-5-7-5----5----5--|
B|----------5-3-5-3-5-3--|------------2-3-2-3-2--|----------2-0-2-0-2-0--|---------------------|
G|-----------------------|-----------------------|-----------------------|----------6----6-----|
D|-----------------------|-----------------------|-----------------------|---------------------|
A|-----------------------|-----------------------|-----------------------|---------------------|
E|-----------------------|-----------------------|-----------------------|---------------------|

A                   D
Mage hada diwa kumaari...ii...
            A
Swarnayaki oba...
                   Bm
Pirisindu sithin sithalai
E   E7      A
Awe obawa soya..


A
Udarata kandu karaye
D                A
gamanak yana kalayae
                    Bm
Dumriya udarata manike
E      E7    A
Swarna hamuwuye


Добавлено: 05.12.2015
Вам также может быть интересно:
Другие материалы по этой песне:
  • Аккорды и текст

Страница создана 05.12.2015
http://primanota.ru/maxwell-mendis/udarata-kandukaraye-chords.htm
Привет, Гость.
Предлагаем пройти революционный курс по гитаре.
Подарок от PrimaNota.Ru, забирай!