PrimaNota.ru - самый крупный в мире бесплатный архив песенных текстов, аккордов, табулатур и нот


Maxwell Mendis - Babun Ralage - таба

Регистрация Запомнить меня
Войти через:  Facebook Google Twitter Vk Yandex Mail.ru

Maxwell Mendis - Babun Ralage - таба

Печатать
Просмотров: 27
---------------------------------------------------------------- 
         Babun Ralage (Mahadana Muththa) - Maxwell Mendis
----------------------------------------------------------------

Tabbed by: laviru93doodle a.k.a Laviru K. (Paris)

This is the main melody of the chorus.


Riff version 1 (easiest way to play it) :
D
e|-------------------|--------------------|-------------------|--------------|
B|-------------------|--------------------|-------------------|--------------|
G|-----------0-0-0-0-|-0--2-0-------------|---0---------------|-----0--------|
D|-0-0-0-2-4---------|--------4-2-4-4-4-4-|-4---4-2-0-2-2-2-2-|-2-4---4-2-0--|
A|-------------------|--------------------|-------------------|--------------|
E|-------------------|--------------------|-------------------|--------------|

Riff version 2 (more accurate to the real song) :
D
e|-------------------|--------------------|-------------------|--------------|
B|---------7-8-8-8-8-|-8-10-8-7---7-7-7-7-|-7-8-7-------------|---7-8-7------|
G|-7-7-7-9-----------|----------9---------|-------9-7-9-9-9-9-|-9-------9-7--|
D|-------------------|--------------------|-------------------|--------------|
A|-------------------|--------------------|-------------------|--------------|
E|-------------------|--------------------|-------------------|--------------|

This a classic Srilankan Baila melody.
The melody is very famous in the country ,and is often played by school's musics band 
during BIG MATCHES (Sport tournament).

Enjoy !!!!
Добавлено: 05.12.2015
Вам также может быть интересно:
Другие материалы по этой песне:
  • Аккорды и текст

Страница создана 05.12.2015
http://primanota.ru/maxwell-mendis/babun-ralage-chords.htm
Привет, Гость.
Предлагаем пройти революционный курс по гитаре.
Подарок от PrimaNota.Ru, забирай!