PrimaNota.ru - самый крупный в мире бесплатный архив песенных текстов, аккордов, табулатур и нот


Maximum The Hormone - Rocknroll Chainsaw - текст песни, таба, бас-таба, видео

Регистрация Запомнить меня
Войти через:  Facebook Google Twitter Vk Yandex Mail.ru

Maximum The Hormone - Rocknroll Chainsaw - текст песни, таба, бас-таба, видео

Печатать
Просмотров: 148
Tuning: Drop D (D,A,D,G,B,E)
Tabbed by horandago
This is all my work that i worked out by MY OWN EARS.
Please do not steal this tab.
                                                      |--3-|      
     E.   S E.  S E  E  S S S S    S S E  E.  S E  E  S  S S S S  
E||-----------------------------|--------------------------------|
B||------10-7---5---------------|--------------------------------|
G||--7------------7-------------|--7-L----------7--9--9-11-9-7-L-|
D||---------------------7-L-L-9-|---------7---9------------------|
A||-----------------------------|--------------------------------|
D||-----------------------------|--------------------------------|


  E  S S E  E  E  E  E  S S    E.   S E.  S E.  E  S S S  
----------------------------|----------------------------|
----------------------------|--7---10-7---5--------------|
--L--L------7--7--------7-L-|---------------7------------|
-------7-9-----------9------|----------------------------|
----------------------------|----------------------------|
----------------------------|----------------------------|


  E  E  E.  S S S E  E.  S    S S E  E.  S S S E  E.  S  
--------2---2-L------2---2-|--L------3---3-L------5---5-|
--------3---3-L------3---3-|--L------3---3-L------5---5-|
---------------------------|----------------------------|
---------------------------|----------------------------|
---------------------------|----------------------------|
---------------------------|----------------------------|


  S S E  E.  S S S E  E.  S    S S E  E.  S S S E  E.  S  
--L------2---2-L------2---2-|--L------3---3-L------5---5-|
--L------3---3-L------3---3-|--L------3---3-L------5---5-|
----------------------------|----------------------------|
----------------------------|----------------------------|
----------------------------|----------------------------|
----------------------------|----------------------------|


  S S E  E.  S S S E  E.  S    S S E  E.  S S S E  E.  S  
--L------2---2-L------2---2-|--L------3---3-L------5---5-|
--L------3---3-L------3---3-|--L------3---3-L------5---5-|
----------------------------|----------------------------|
----------------------------|----------------------------|
----------------------------|----------------------------|
----------------------------|----------------------------|


  S S E  E.  S S S E  E.  S    Q    Q    S S S S Q       Q    Q    Q    Q     
--L------2---2-L------2---2-|-------------------------|----------------------|
--L------3---3-L------3---3-|-------------------------|----------------------|
----------------------------|-------------------------|----------------------|
----------------------------|------------7-7-7-7------|--7----7----4----2----|
----------------------------|--5----7----5-5-5-5------|--5----4----2----0----|
----------------------------|--5----7-----------------|----------------------|


  H        H           Q    Q    Q    Q       H        H         
--------------------|----------------------|--------------------|
--------------------|----------------------|--------------------|
--------------------|----------------------|--------------------|
--------------------|--7----7----4----2----|--------------------|
--5--------7--------|--5----4----2----0----|--5--------7--------|
--5--------7--------|----------------------|--5--------7--------|


  Q    Q    Q    Q       H        H           Q    Q    Q    Q     
----------------------|--------------------|----------------------|
----------------------|--------------------|----------------------|
----------------------|--------------------|----------------------|
--7----7----4----2----|--------------------|--7----7----4----2----|
--5----4----2----0----|--5--------7--------|--5----4----2----0----|
----------------------|--5--------7--------|----------------------|


  H        H           E.   S E.  S E  E  S S S S  
--------------------|-----------------------------|
--------------------|------10-7---5---------------|
--------------------|--7------------7-------------|
--------------------|---------------------7-L-L-9-|
--5--------7--------|-----------------------------|
--5--------7--------|-----------------------------|


                     |--3-|                                   
  S S E  E.  S E  E  S  S S S S    E  S S E  E  E  E  E  S S  
--------------------------------|----------------------------|
--------------------------------|----------------------------|
--7-L----------7--9--9-11-9-7-L-|--L--L------7--7--------7-L-|
---------7---9------------------|-------7-9-----------9------|
--------------------------------|----------------------------|
--------------------------------|----------------------------|


  E.   S E.  S E.  E  S S S    E  E  E.  S S S E  E.  S  
----------------------------|--------2---2-L------2---2-|
--7---10-7---5--------------|--------3---3-L------3---3-|
---------------7------------|---------------------------|
----------------------------|---------------------------|
----------------------------|---------------------------|
----------------------------|---------------------------|


  S S E  E.  S S S E  E.  S    S S E  E.  S S S E  E.  S  
--L------3---3-L------5---5-|--L------2---2-L------2---2-|
--L------3---3-L------5---5-|--L------3---3-L------3---3-|
----------------------------|----------------------------|
----------------------------|----------------------------|
----------------------------|----------------------------|
----------------------------|----------------------------|


  S S E  E.  S S S E  E.  S    S S E  E.  S S S E  E.  S  
--L------3---3-L------5---5-|--L------2---2-L------2---2-|
--L------3---3-L------5---5-|--L------3---3-L------3---3-|
----------------------------|----------------------------|
----------------------------|----------------------------|
----------------------------|----------------------------|
----------------------------|----------------------------|


  S S E  E.  S S S E  E.  S    S S E  E.  S S S E  E.  S  
--L------3---3-L------5---5-|--L------2---2-L------2---2-|
--L------3---3-L------5---5-|--L------3---3-L------3---3-|
----------------------------|----------------------------|
----------------------------|----------------------------|
----------------------------|----------------------------|
----------------------------|----------------------------|


  Q    Q    S S S S Q       Q    Q    Q    Q       H        H         
-------------------------|----------------------|--------------------|
-------------------------|----------------------|--------------------|
-------------------------|----------------------|--------------------|
------------7-7-7-7------|--7----7----4----2----|--------------------|
--5----7----5-5-5-5------|--5----4----2----0----|--5--------7--------|
--5----7-----------------|----------------------|--5--------7--------|


  Q    Q    Q    Q       H        H           Q    Q    Q    Q     
----------------------|--------------------|----------------------|
----------------------|--------------------|----------------------|
----------------------|--------------------|----------------------|
--7----7----4----2----|--------------------|--7----7----4----2----|
--5----4----2----0----|--5--------7--------|--5----4----2----0----|
----------------------|--5--------7--------|----------------------|


  H        H           Q    Q    Q    Q       H        H         
--------------------|----------------------|--------------------|
--------------------|----------------------|--------------------|
--------------------|----------------------|--------------------|
--------------------|--7----7----4----2----|--------------------|
--5--------7--------|--5----4----2----0----|--5--------7--------|
--5--------7--------|----------------------|--5--------7--------|


  W                   E  E  H.              E  E  H.            
-------------------|---------------------|---------------------|
-------------------|---------------------|---------------------|
-------------------|---------------------|---------------------|
-------------------|---------------------|---------------------|
--0----------------|--0--0---------------|--0--0---------------|
--0----------------|--0--0---------------|--0--0---------------|


  E  E  H.              E  E  H.              E  E  E  E  E  E  E  E   
---------------------|---------------------|--------------------------|
---------------------|---------------------|--------------------------|
---------------------|---------------------|--------------------------|
---------------------|---------------------|--------------------------|
--0--0---------------|--0--0---------------|--------------------------|
--0--0---------------|--0--0---------------|--0--0--3--0--5--0--3--5--|


  E  E  E  E  E  E  E  E     E  E  E  E  E  E  E  E   
--------------------------|--------------------------|
--------------------------|--------------------------|
--------------------------|--------------------------|
--------------------------|--------------------------|
--------------------------|--------------------------|
--0--0--3--0--5--0--3--5--|--0--0--3--0--5--0--3--5--|


  E  E  E  E  E  E  E  E     E  E  E  E  E  E  E  E   
--------------------------|--------------------------|
--------------------------|--------------------------|
--------------------------|--------------------------|
--------------------------|--------------------------|
--------------------------|--------------------------|
--0--0--3--0--5--0--3--5--|--0--0--3--0--5--0--3--5--|


  E  E  E  E  E  E  E  E     E  E  E  E  E  E  E  E   
--------------------------|--------------------------|
--------------------------|--------------------------|
--------------------------|--------------------------|
--------------------------|--------------------------|
--------------------------|--------------------------|
--0--0--3--0--5--0--3--5--|--0--0--3--0--5--0--3--5--|


  E  E  E  E  E  E  E  E     E  E  E  E  E  E  E  E   
--------------------------|--------------------------|
--------------------------|--------------------------|
--------------------------|--------------------------|
--------------------------|--------------------------|
--------------------------|--------------0--3--5-----|
--0--0--3--0--5--0--3--0--|--------3--5-----------0--|


  E  E  E  E  E  E  E  E     E  E  E  E  E  E  E  E     Q    Q    Q    E  E   
--------------------------|--------------------------|-----------------------|
--------------------------|--------------------------|-----------------------|
--------------------------|--------------------------|-----------------------|
--------------------------|--------------------------|-----------------------|
--------------0--3--5-----|--------------0--3--5-----|-----------------------|
--------3--5-----------0--|--------3--5-----------0--|--4----5----6----7---0-|


  E  E  E  E  E  E  E  E     E  E  E  E  E  E  E  E   
--------------------------|--------------------------|
--------------------------|--------------------------|
--------------------------|--------------------------|
--------------------------|--------------------------|
--------------0--3--5-----|--------------0--3--5-----|
--------3--5-----------0--|--------3--5-----------0--|


  E  E  E  E  E  E  E  E     Q    Q    Q    E  E     Q    Q    Q    E  E   
--------------------------|-----------------------|-----------------------|
--------------------------|-----------------------|-----------------------|
--------------------------|-----------------------|-----------------------|
--------------------------|-----------------------|-----------------------|
--------------0--3--5-----|-----------------------|-----------------------|
--------3--5-----------0--|--4----5----6----7--0--|--4----5----6----7--0--|


  Q    Q    Q    Q       E  E  E  E  E  E  E  E     W                 
----------------------|--------------------------|-------------------|
----------------------|--------------------------|-------------------|
----------------------|--------------------------|--7----------------|
----------------------|--7--7--7--7--------------|--7----------------|
----------------------|--7--7--7--7--------------|--5----------------|
--4----5----6----7----|--7--7--7--7--------------|-------------------|


  W                   W                   W                   W                 
-------------------|-------------------|-------------------|-------------------|
-------------------|-------------------|-------------------|-------------------|
--4----------------|-------------------|-------------------|--7----------------|
--4----------------|--5----------------|--7----------------|--7----------------|
--2----------------|--5----------------|--7----------------|--5----------------|
-------------------|--5----------------|--7----------------|-------------------|


  W                   W                   W                   W                 
-------------------|-------------------|-------------------|-------------------|
-------------------|-------------------|-------------------|-------------------|
--4----------------|-------------------|-------------------|--7----------------|
--4----------------|--5----------------|--7----------------|--7----------------|
--2----------------|--5----------------|--7----------------|--5----------------|
-------------------|--5----------------|--7----------------|-------------------|


  W                   W                   W                   W                 
-------------------|-------------------|-------------------|-------------------|
-------------------|-------------------|-------------------|-------------------|
--4----------------|-------------------|-------------------|--7----------------|
--4----------------|--5----------------|--7----------------|--7----------------|
--2----------------|--5----------------|--7----------------|--5----------------|
-------------------|--5----------------|--7----------------|-------------------|


  W                   W                   W                 
-------------------|-------------------|-------------------|
-------------------|-------------------|-------------------|
--4----------------|-------------------|-------------------|
--4----------------|--5----------------|--7----------------|
--2----------------|--5----------------|--7----------------|
-------------------|--5----------------|--7----------------|


  E  E  E  E  E  E  E  E     E  E  E  E  E  E   E  E   
--------------------------|---------------------------|
--------------------------|---------------------------|
--------------------------|---------------------------|
--------------------------|---------------------------|
--5--5--9--5--2--2--5--2--|---------------------------|
--------------------------|--5--5--9--5--7--7--11--7--|


  E  E  E  E  E  E  E  E     E  E  E  E  S S S S S S S S  
--------------------------|------------------------------|
--------------------------|------------------------------|
--------------------------|------------------------------|
--------------------------|------------------------------|
--5--5--9--5--2--2--5--2--|--------------7-7-7-7-L-------|
--------------------------|--5--5--9--5--7-7-7-7-L-------|


  E  E  E  E  E  E  E  E     E  E  E  E  E  E  E  E   
--------------------------|--------------------------|
--------------------------|--------------------------|
-----7-----7-----4-----4--|--------------------------|
-----7-----7-----4-----4--|-----5-----5-----7-----7--|
-----5-----5-----2-----2--|-----5-----5-----7-----7--|
--------------------------|-----5-----5-----7-----7--|


  E  E  E  E  E  E  E  E     E  E  E  E  E  E  E  E   
--------------------------|--------------------------|
--------------------------|--------------------------|
-----7-----7-----4-----4--|--------------------------|
-----7-----7-----4-----4--|-----5-----5-----7-----7--|
-----5-----5-----2-----2--|-----5-----5-----7-----7--|
--------------------------|-----5-----5-----7-----7--|


  E  E  E  E  E  E  E  E     E  E  E  E  E  E  E  E   
--------------------------|--------------------------|
--------------------------|--------------------------|
-----7-----7-----4-----4--|--------------------------|
-----7-----7-----4-----4--|-----5-----5-----7-----7--|
-----5-----5-----2-----2--|-----5-----5-----7-----7--|
--------------------------|-----5-----5-----7-----7--|


  E  E  E  E  E  E  E  E     E  E  E  E  S S S S S S S S  
--------------------------|------------------------------|
--------------------------|------------------------------|
--7-----------4-----------|--------------7-7-7-7-L-------|
--7-----------4-----------|--5--L--7--L--7-7-7-7-L-------|
--5-----------2-----------|--5--L--7--L--5-5-5-5-L-------|
--------------------------|--5--L--7--L------------------|


  Q    Q    Q    Q       H        H           Q    Q    Q    Q     
----------------------|--------------------|----------------------|
----------------------|--------------------|----------------------|
----------------------|--------------------|----------------------|
--7----7----4----2----|--------------------|--7----7----4----2----|
--5----4----2----0----|--5--------7--------|--5----4----2----0----|
----------------------|--5--------7--------|----------------------|


  H        H           Q    Q    Q    Q       H        H         
--------------------|----------------------|--------------------|
--------------------|----------------------|--------------------|
--------------------|----------------------|--------------------|
--------------------|--7----7----4----2----|--------------------|
--5--------7--------|--5----4----2----0----|--5--------7--------|
--5--------7--------|----------------------|--5--------7--------|


  Q    Q    Q    Q       H        H           W                 
----------------------|--------------------|-------------------|
----------------------|--------------------|-------------------|
----------------------|--------------------|-------------------|
--7----7----4----2----|--------------------|-------------------|
--5----4----2----0----|--5--------7--------|--5----------------|
----------------------|--5--------7--------|--5----------------|


  W                   Q    Q    Q    Q       Q    Q    Q    Q     
-------------------|----------------------|----------------------|
-------------------|----------------------|----------------------|
-------------------|----------------------|----------------------|
-------------------|----------------------|----------------------|
--7----------------|--0----3----5----6----|--0----3----5----6----|
--7----------------|--0----3----5----6----|--0----3----5----6----|


  Q    Q    Q    Q       Q    Q    Q    Q       Q    Q    Q    Q     
----------------------|----------------------|----------------------|
----------------------|----------------------|----------------------|
----------------------|----------------------|----------------------|
----------------------|----------------------|----------------------|
--0----3----5----6----|--0----3----5----6----|--0----3----5----6----|
--0----3----5----6----|--0----3----5----6----|--0----3----5----6----|


  Q    Q    Q    Q       Q    Q    Q    Q       Q    Q    E  E  Q     
----------------------|----------------------|-----------------------|
----------------------|----------------------|-----------------------|
----------------------|----------------------|-----------------------|
----------------------|----------------------|-----------------------|
--0----3----5----6----|--0----3----5----6----|--0----3----5----------|
--0----3----5----6----|--0----3----5----6----|--0----3----5----------|


  Q     Q     Q     Q       Q     Q     Q     Q       Q     Q     Q     Q     
-------------------------|-------------------------|-------------------------|
-------------------------|-------------------------|-------------------------|
--7----10----12----13----|--7----10----12----13----|--7----10----12----13----|
-------------------------|-------------------------|-------------------------|
--5-----8----10----11----|--5-----8----10----11----|--5-----8----10----11----|
-------------------------|-------------------------|-------------------------|


  Q     Q     Q     Q       Q     Q     Q     Q       Q     Q     Q     Q     
-------------------------|-------------------------|-------------------------|
-------------------------|-------------------------|-------------------------|
--7----10----12----13----|--7----10----12----13----|--7----10----12----13----|
-------------------------|-------------------------|-------------------------|
--5-----8----10----11----|--5-----8----10----11----|--5-----8----10----11----|
-------------------------|-------------------------|-------------------------|


  Q     Q     Q     Q        S  S  S  S  S  S S S H         
-------------------------|---------------------------------|
-------------------------|---------------------------------|
--7----10----12----13----|--14-14-14-14-14-14--------------|
-------------------------|---------------------------------|
--5-----8----10----11----|--12-12-12-12-12-12--------------|
-------------------------|---------------------------------|


  PM PM PM PM PM PM PM PM    PM PM PM PM PM PM PM PM  
  E  E  E  E  E  E  E  E     E  E  E  E  E  E  E  E   
--------------------------|--------------------------|
--------------------------|--------------------------|
--------------------------|--------------------------|
-----7-----7-----7-----7--|-----4-----4-----4-----4--|
--5-----5-----5-----5-----|--2-----2-----2-----2-----|
--------------------------|--------------------------|


  PM PM PM PM PM PM PM PM    PM PM PM PM PM PM PM PM  
  E  E  E  E  E  E  E  E     E  E  E  E  E  E  E  E   
--------------------------|--------------------------|
--------------------------|--------------------------|
--------------------------|--------------------------|
--------------------------|--------------------------|
-----5-----5-----5-----5--|-----7-----7-----7-----7--|
--5-----5-----5-----5-----|--7-----7-----7-----7-----|


  PM PM PM PM PM PM PM PM    PM PM PM PM PM PM PM PM  
  E  E  E  E  E  E  E  E     E  E  E  E  E  E  E  E   
--------------------------|--------------------------|
--------------------------|--------------------------|
--------------------------|--------------------------|
-----7-----7-----7-----7--|-----4-----4-----4-----4--|
--5-----5-----5-----5-----|--2-----2-----2-----2-----|
--------------------------|--------------------------|


  PM PM PM PM PM PM PM PM    PM PM PM PM PM PM PM PM  
  E  E  E  E  E  E  E  E     E  E  E  E  E  E  E  E   
--------------------------|--------------------------|
--------------------------|--------------------------|
--------------------------|--------------------------|
--------------------------|--------------------------|
-----5-----5-----5-----5--|-----7-----7-----7-----7--|
--5-----5-----5-----5-----|--7-----7-----7-----7-----|


  PM PM PM PM PM PM PM PM    PM PM PM PM PM PM PM PM  
  E  E  E  E  E  E  E  E     E  E  E  E  E  E  E  E   
--------------------------|--------------------------|
--------------------------|--------------------------|
--------------------------|--------------------------|
-----7-----7-----7-----7--|-----4-----4-----4-----4--|
--5-----5-----5-----5-----|--2-----2-----2-----2-----|
--------------------------|--------------------------|


  PM PM PM PM PM PM PM PM    PM PM PM PM PM PM PM PM  
  E  E  E  E  E  E  E  E     E  E  E  E  E  E  E  E   
--------------------------|--------------------------|
--------------------------|--------------------------|
--------------------------|--------------------------|
--------------------------|--------------------------|
-----5-----5-----5-----5--|-----7-----7-----7-----7--|
--5-----5-----5-----5-----|--7-----7-----7-----7-----|


  PM PM PM PM PM PM PM PM    PM PM PM PM PM PM PM PM  
  E  E  E  E  E  E  E  E     E  E  E  E  E  E  E  E   
--------------------------|--------------------------|
--------------------------|--------------------------|
--------------------------|--------------------------|
-----7-----7-----7-----7--|-----4-----4-----4-----4--|
--5-----5-----5-----5-----|--2-----2-----2-----2-----|
--------------------------|--------------------------|


  PM PM PM PM PM PM PM PM                                              
  E  E  E  E  E  E  E  E     E  E  E  E  H           W                 
--------------------------|-----------------------|-------------------|
--------------------------|-----------------------|-------------------|
--------------------------|-----------------------|--7----------------|
--------------------------|-----------------------|--7----------------|
-----5-----5-----5-----5--|--7--7--7--7-----------|--5----------------|
--5-----5-----5-----5-----|--7--7--7--7-----------|-------------------|


  W                   W                   W                   W                 
-------------------|-------------------|-------------------|-------------------|
-------------------|-------------------|-------------------|-------------------|
--4----------------|-------------------|-------------------|--7----------------|
--4----------------|--5----------------|--7----------------|--7----------------|
--2----------------|--5----------------|--7----------------|--5----------------|
-------------------|--5----------------|--7----------------|-------------------|


  W                   W                   W                   W                 
-------------------|-------------------|-------------------|-------------------|
-------------------|-------------------|-------------------|-------------------|
--4----------------|-------------------|-------------------|--7----------------|
--4----------------|--5----------------|--7----------------|--7----------------|
--2----------------|--5----------------|--7----------------|--5----------------|
-------------------|--5----------------|--7----------------|-------------------|


  W                   W                   W                   W                 
-------------------|-------------------|-------------------|-------------------|
-------------------|-------------------|-------------------|-------------------|
--4----------------|-------------------|-------------------|--7----------------|
--4----------------|--5----------------|--7----------------|--7----------------|
--2----------------|--5----------------|--7----------------|--5----------------|
-------------------|--5----------------|--7----------------|-------------------|


  W                   E  E  E  E  E  E  E  E     E  E  E  E  E  E  E  E   
-------------------|--------------------------|--------------------------|
-------------------|--------------------------|--------------------------|
--4----------------|--------------------------|--------------------------|
--4----------------|--------------------------|--------------------------|
--2----------------|--5--L--------------------|--------------------------|
-------------------|--5--L--5--5--5--5--5--5--|--5--5--5--5--5--5--5--5--|


  E  E  E  E  E  E  E  E     W                   E.   S E.  S E  E  S S S S  
--------------------------|-------------------|-----------------------------|
--------------------------|-------------------|------10-7---5---------------|
--------------------------|-------------------|--7------------7-------------|
--------------------------|-------------------|---------------------7-L-L-9-|
--7--L--------------------|--7----------------|-----------------------------|
--7--L--7--7--7--7--7--7--|--7----------------|-----------------------------|


                     |--3-|                                   
  S S E  E.  S E  E  S  S S S S    E  S S E  E  E  E  E  S S  
--------------------------------|----------------------------|
--------------------------------|----------------------------|
--7-L----------7--9--9-11-9-7-L-|--L--L------7--7--------7-9-|
---------7---9------------------|-------7-9-----------9------|
--------------------------------|----------------------------|
--------------------------------|----------------------------|


  E  S  S E.  S E.  E  S S S   
-----------------------------||
--7--8-10-7---5--------------||
----------------7------------||
-----------------------------||
-----------------------------||
-----------------------------||




Duration Legend
---------------
W - whole
H - half
Q - quarter
E - 8th
S - 16th
T - 32nd
X - 64th
. - note dotted
|-n-|  - n-tuplets


Tablature Legend
----------------
L - tied note
x - dead note
g - grace note
(n) - ghost note
> - accentuded note
NH - natural harmonic
AH - artificial harmonic
TH - tapped harmonic
SH - semi harmonic
PH - pitch harmonic
h - hammer on
p - pull off
b - bend
br - bendRelease
pb - preBend
pbr - preBendRelease
brb - bendReleaseBend
\n/ - tremolo bar dip
\n - tremolo bar dive
-/n - tremolo bar Release up
/n\ - tremolo bar inverted dip
/n - tremolo bar return
-\n - tremolo bar Release down
S - shift slide
s - legato slide
/ -  slide into from below or out of upwards
\ -  slide into from above or out of downwards
~ - vibrato
W - wide vibrato
tr - trill
TP - tremolo picking
T - tapping
S - slap
P - pop
< - fade in
^ - brush up
v - brush down
Добавлено: 12.06.2012
Другие материалы по этой песне:

Страница создана 03.03.2012
http://primanota.ru/maximum-the-hormone/rocknroll-chainsaw-chords.htm
Привет, Гость.
Предлагаем пройти революционный курс по гитаре.
Подарок от PrimaNota.Ru, забирай!