PrimaNota.ru - самый крупный в мире бесплатный архив песенных текстов, аккордов, табулатур и нот


Maximum The Hormone - Buiki Kaesu - текст песни, бас-таба, видео

Регистрация Запомнить меня
Войти через:  Facebook Google Twitter Vk Yandex Mail.ru

Maximum The Hormone - Buiki Kaesu - текст песни, бас-таба, видео

Печатать
Просмотров: 118
The song Playing : http://youtu.be/WfkLO3J88K0

Normal Tuning
G|
D|
A|
E|


You can play the riff like this

Intro
|---3--5-5----3--5-5---3--5-5--------------|
|---3--5-5----3--5-5---3--5-5--------------|
|------------------------------------------| x4    <>-|
|-4-4----6-6---------------4>>--6>>------|

|--------------------------------------------------------------------------|
|--------------------------------------------------------------------------|
|--------------------------------3-3-3-3-3---------------------6-6-6-6-6-6-|
|-4-4-4-4-4-6-6-6-6-6--3-3-3-3-3-----------4-4-4-4-4-6-6-6-6-6-------------|

|-----------------|
|-----------------|
|-----------6~----|
|-4~---6~---------|

outro
|---3--5-5----3--5-5---3--5-5--------------|
|------------------------------------------|
|------------------------------------------| x4
|-3--------3---------3--------4--4-4-4-7-7-|
  s p  p   s  p  p   s p  p   s  s s s s s 

Добавлено: 08.11.2013
Другие материалы по этой песне:

Страница создана 18.03.2012
http://primanota.ru/maximum-the-hormone/buiki-kaesu-chords.htm
Привет, Гость.
Предлагаем пройти революционный курс по гитаре.
Подарок от PrimaNota.Ru, забирай!