PrimaNota.ru - самый крупный в мире бесплатный архив песенных текстов, аккордов, табулатур и нот


Maximum Penalty - All Your Boyz - таба, видео

Регистрация Запомнить меня
Войти через:  Facebook Google Twitter Vk Yandex Mail.ru

Maximum Penalty - All Your Boyz - таба, видео

Печатать
Просмотров: 77
Riff A x4
|--------------------------------------------------------|
|--------------------------------------------------------|
|--------------------------------------------------------|
|--------5--------------------------5--------------------|
|-5------3------5------7--8--5------3------5-6--6--6--6--|
|-3--0-0----0-0-3--0-0-5--6--3--0-0----0-0-3-4--4--4--4--|
     . .    . .    . .          . .    . .

Riff B x2
|---------------------------------------------|
|---------------------------------------------|
|---------------------------------------------|
|---------------------------------------------|
|-5---5-5---8--8--8-8--10--10-------6------6--|
|-3---3-3---6--6--6-6---8---8---0-0-4--0-0-4--|
                                . .    . .

|---------------------------------------------|
|---------------------------------------------|
|---------------------------------------------|
|---------------------------------------------|
|-5---5-5---8--8--8-8---4---4-------4------4--|
|-3---3-3---6--6--6-6---2---2---0-0-2--0-0-2--|
                                . .    . .


Riff C x2
|--------------------------------------------------------------------------|
|--------------------------------------------------------------------------|
|--------------------------------------------------------------------------|
|--------------------------------------------------------------------------|
|-5--3--5--3-5---8--8-8--10--10--10-10--5--3--5--3-5---8--8-8--4--4--4-4---|
|-3--1--3--1-3---6--6-6---8---8---8--8--3--1--3--1-3---6--6-6--2--2--2-2---|


Riff A1 x2
|---------------------------------------------------------|
|---------------------------------------------------------|
|---------------------------------------------------------|
|--------5---------------------------5--------------------|
|-5------3------5------7--8----------3------5-6--6--6--6--|
|-3--0-0----0-0-3--0-0-5--6--3-3-3-3----0-0-3-4--4--4--4--|
     . .    . .    . .       . . . .    . .

|--------------------------------------------------------|
|--------------------------------------------------------|
|--------------------------------------------------------|
|--------5--------------------------5--------------------|
|-5------3------5------7--8--5------3------5-6--6--6--6--|
|-3--0-0----0-0-3--0-0-5--6--3--0-0----0-0-3-4--4--4--4--|
     . .    . .    . .          . .    . .

Riff C x2
|--------------------------------------------------------------------------|
|--------------------------------------------------------------------------|
|--------------------------------------------------------------------------|
|--------------------------------------------------------------------------|
|-5--3--5--3-5---8--8-8--10--10--10-10--5--3--5--3-5---8--8-8--4--4--4-4---|
|-3--1--3--1-3---6--6-6---8---8---8--8--3--1--3--1-3---6--6-6--2--2--2-2---|


Riff A2
|---------------------------------------------------------| x3
|---------------------------------------------------------|
|---------------------------------------------------------|
|--------5---------------------------5--------------------|
|-5------3------5------7--8----------3------5-6--6--6--6--|
|-3--0-0----0-0-3--0-0-5--6--3-3-3-3----0-0-3-4--4--4--4--|
     . .    . .    . .       . . . .    . .

|--------------------------------------------------------|
|--------------------------------------------------------|
|--------------------------------------------------------|
|--------5--------------------------5--------------------|
|-5------3------5------7--8--5------3------5-6--6--6--6--|
|-3--0-0----0-0-3--0-0-5--6--3--0-0----0-0-3-4--4--4--4--|
     . .    . .    . .          . .    . .

Riff D x2
|---------------------------------------------------|
|---------------------------------------------------|
|---------------------------------------------------|
|---------------6--5--3--5----------------6--5--3---|
|---------------4--3--1--3----------------4--3--1---|
|-3-1-1-1-3-1-1-------------3-1-1-1-3-1-1-----------|
  . . . . . . .             . . . . . . .

|---------------------------------------------------|
|---------------------------------------------------|
|---------------------------------------------------|
|---------------6--5--3--5----------------6--5--7---|
|---------------4--3--1--3----------------4--3--5---|
|-3-1-1-1-3-1-1-------------3-1-1-1-3-1-1-----------|
  . . . . . . .             . . . . . . .  

Riff C x2
|--------------------------------------------------------------------------|
|--------------------------------------------------------------------------|
|--------------------------------------------------------------------------|
|--------------------------------------------------------------------------|
|-5--3--5--3-5---8--8-8--10--10--10-10--5--3--5--3-5---8--8-8--4--4--4-4---|
|-3--1--3--1-3---6--6-6---8---8---8--8--3--1--3--1-3---6--6-6--2--2--2-2---|


Riff A x4
|--------------------------------------------------------|
|--------------------------------------------------------|
|--------------------------------------------------------|
|--------5--------------------------5--------------------|
|-5------3------5------7--8--5------3------5-6--6--6--6--|
|-3--0-0----0-0-3--0-0-5--6--3--0-0----0-0-3-4--4--4--4--|
     . .    . .    . .          . .    . .

Outro
|----------------|
|----------------|
|----------------|
|----------------|
|-5--3--5--3-5---|
|-3--1--3--1-3---|



.=Palm mute



http://www.myspace.com/maximumpenalty
Добавлено: 29.11.2013
Другие материалы по этой песне:
  • Аккорды и текст

Страница создана 29.11.2013
http://primanota.ru/maximum-penalty/all-your-boyz-chords.htm
Привет, Гость.
Предлагаем пройти революционный курс по гитаре.
Подарок от PrimaNota.Ru, забирай!