PrimaNota.ru - самый крупный в мире бесплатный архив песенных текстов, аккордов, табулатур и нот


Maximo Park - Your Urge - текст песни, таба, видео

Регистрация Запомнить меня
Войти через:  Facebook Google Twitter Vk Yandex Mail.ru

Maximo Park - Your Urge - текст песни, таба, видео

Печатать
Просмотров: 86
Авторы: Paul Smith, Lukas Wooller

-------------------------------------------------------------------------------
			     Your Urge - Maximo Park
-------------------------------------------------------------------------------

Tabbed by: Gunnar Matzen
e-mail: elektroakustik@gmx.de

tuning: standard


Intro+Verse1 0:00-1:27

I've tabbed the piano part because the guitar to play here is bit boring^^ 
  
    "You don't have to deny your urge"    "It doesn't make you bad"  
    "On our admission the make..."        "Stop dwelling on the past"

e|------10------10------10------10-----|-------12------12------12------12-----|
B|--1012----1012----1012----1012-------|---1214----1214----1214----1214-------|
G|12------12------12------12-----------|-14------14------14------14-----------|
D|-------------------------------------|--------------------------------------|
A|-------------------------------------|--------------------------------------|
E|-------------------------------------|--------------------------------------|
  + - + - + - + - + - + - + - + -        + - + - + - + - + - + - + - + -

    "I think about the three of us, I wonder how we tesselate"
    "It would have been much wiser, To allow these feelings to rebate"
                                                   
e|-----5-------5-------5-------5-------5-------5-------3-------3--------------|
B|---7---7---7---7---7---7---7---7---7---7---7---7---5---5---5---5------------|
G|-7-------7-------7-------7-------7-------7-------5-------5------------------|
D|----------------------------------------------------------------------------|
A|----------------------------------------------------------------------------|
E|----------------------------------------------------------------------------|
   + - + - + - + - + - + - + - + - + - + - + - + - + - + - + - + -

Chorus1 1:27-1:52

    "The weekend is a Godsend"    "The Night time is a lifeline"
    "Another useless fumble"                             *"Another drunken.."
           F                      Dm                      E      
e|-----------------------------|-----------------------|----------------------|
B|-play----10-10-10-10---------|--6-6-6-6--------------|-*9-9-9-9-------------|
G|-16th----10-10-10-10---------|--7-7-7-7--------------|--9-9-9-9-------------|
D|-rythm---10-10-10-10---------|--7-7-7-7--------------|--9-9-9-9-------------|
A|---------8--8--8--8----------|--5-5-5-5--------------|--7-7-7-7-------------|
E|-----------------------------|-----------------------|----------------------|
           
   "The pinkness round your..."  "Reveals that you've..." "But I don't know."
          F                       G                        
e|-----------------------------|-------------------------|--------------------|
B|-----------------------------|-------------------------|--------------------|
G|-play---2-2-2-2--------------|--4-4-4-4----------------|--------------------|
D|-16th---3-3-3-3--------------|--5-5-5-5----------------|--------------------|
A|-rythm--3-3-3-3--------------|--5-5-5-5----------------|---7---7---7---7----|
E|--------1-1-1-1--------------|--3-3-3-3----------------|-55--55--55--55-----|


    "I cause upset without trying"

e|--------------------------------|
B|--------------------------------|
G|--------------------------------|
D|--------------------------------|
A|----7---7---7---7---------------|
E|--55--55--55--55----------------|
 
Pre Verse 1:52-1:55

e|--------10------10------12------12--|
B|----1012----1012----1012----1012----|
G|--12------12------12------12--------|
D|------------------------------------|
A|------------------------------------|
E|------------------------------------|

Verse2 1:55-2:37

    "People are judged on their mistakes.." "No-one wants to lose their..."
    "Visiting the same places..."           "Building up support..."
    "I empty out my pockets at the..."      "Another scrawled first name..."  
e|----------------------------------------|-----------------------------------|
B|--5---5-------5----5---5-------5--------|-8---8-------8----8---8-------8----|
G|-------7-------7-7------7-------7-7-----|------9-------9-9------9-------9-9-|
D|-----7----7--7--7-----7----7--7--7------|----9----9--9--9-----9----9--9--9--|
A|---55------55-------55------55----------|--77------77-------77------77------|
E|----------------------------------------|-----------------------------------|


Chorus2 2:37-3:15
  
    "I need to get to bed"       "Before I fail myself..." "We got to close."
          F                       G
e|-----------------------------|-------------------------|--------------------|
B|-----------------------------|-------------------------|--------------------|
G|-play---2-2-2-2--------------|--4-4-4-4----------------|--------------------|
D|-16th---3-3-3-3--------------|--5-5-5-5----------------|--------------------|
A|-rythm--3-3-3-3--------------|--5-5-5-5----------------|---7---7---7---7----|
E|--------1-1-1-1--------------|--3-3-3-3----------------|-55--55--55--55-----|


    "And I reached ou for your hand"

e|----------------------------------|
B|----------------------------------|
G|----------------------------------|
D|----------------------------------|
A|----7---7---7---7-----------------|
E|--55--55--55--55------------------|


    "The Night time is a lifeline"    "The weekend is a godsend"
    "Another useless fumble"                             *"Another drunken.."
           F                      Dm                      E      
e|-----------------------------|-----------------------|----------------------|
B|-play----10-10-10-10---------|--6-6-6-6--------------|-*9-9-9-9-------------|
G|-16th----10-10-10-10---------|--7-7-7-7--------------|--9-9-9-9-------------|
D|-rythm---10-10-10-10---------|--7-7-7-7--------------|--9-9-9-9-------------|
A|---------8--8--8--8----------|--5-5-5-5--------------|--7-7-7-7-------------|
E|-----------------------------|-----------------------|----------------------|


   "Oh The pinkness round..."    "Reveals that you've..." "But I don't know."
          F                       G
e|-----------------------------|-------------------------|--------------------|
B|-----------------------------|-------------------------|--------------------|
G|-play---2-2-2-2--------------|--4-4-4-4----------------|--------------------|
D|-16th---3-3-3-3--------------|--5-5-5-5----------------|--------------------|
A|-rythm--3-3-3-3--------------|--5-5-5-5----------------|---7---7---7---7----|
E|--------1-1-1-1--------------|--3-3-3-3----------------|-55--55--55--55-----|


    "Behind my crumbling veneer."

e|--------------------------------|
B|--------------------------------|
G|--------------------------------|
D|--------------------------------|
A|----7---7---7---7---------------|
E|--55--55--55--55----------------|
     
Outro=Intro 3:15-3:50

    "My strength is sapping...

e|------10------10------10------10-----|-------12------12------12------12-----|
B|--1012----1012----1012----1012-------|---1214----1214----1214----1214-------|
G|12------12------12------12-----------|-14------14------14------14-----------|
D|-------------------------------------|--------------------------------------|
A|-------------------------------------|--------------------------------------|
E|-------------------------------------|--------------------------------------|
  + - + - + - + - + - + - + - + -        + - + - + - + - + - + - + - + -
      
End

Hope you enjoy it as much as I did! Please rate this tab! Thanks


| /  slide up
| \  slide down
| h  hammer-on
| p  pull-off
| ~  vibrato
| +  downstroke
| -  upstroke
| x  Mute note
|
Добавлено: 26.07.2013
Другие материалы по этой песне:
  • Аккорды и текст

Страница создана 09.04.2012
http://primanota.ru/maximo-park/your-urge-chords.htm
Привет, Гость.
Предлагаем пройти революционный курс по гитаре.
Подарок от PrimaNota.Ru, забирай!